  0
SECTION
  2
HEADER
  9
$ACADVER
  1
AC1014
  9
$HANDSEED
  5
FFFF
  9
$MEASUREMENT
 70
     1
  0
ENDSEC
  0
SECTION
  2
TABLES
  0
TABLE
  2
VPORT
  5
8
330
0
100
AcDbSymbolTable
 70
     4
  0
VPORT
  5
2E
330
8
100
AcDbSymbolTableRecord
100
AcDbViewportTableRecord
  2
*ACTIVE
 70
     0
 10
0.0
 20
0.0
 11
1.0
 21
1.0
 12
210.0
 22
148.5
 13
0.0
 23
0.0
 14
10.0
 24
10.0
 15
10.0
 25
10.0
 16
0.0
 26
0.0
 36
1.0
 17
0.0
 27
0.0
 37
0.0
 40
341.0
 41
1.24
 42
50.0
 43
0.0
 44
0.0
 50
0.0
 51
0.0
 71
     0
 72
   100
 73
     1
 74
     3
 75
     0
 76
     0
 77
     0
 78
     0
  0
ENDTAB
  0
TABLE
  2
LTYPE
  5
5
330
0
100
AcDbSymbolTable
 70
     1
  0
LTYPE
  5
14
330
5
100
AcDbSymbolTableRecord
100
AcDbLinetypeTableRecord
  2
BYBLOCK
 70
     0
  3

 72
    65
 73
     0
 40
0.0
  0
LTYPE
  5
15
330
5
100
AcDbSymbolTableRecord
100
AcDbLinetypeTableRecord
  2
BYLAYER
 70
     0
  3

 72
    65
 73
     0
 40
0.0
  0
LTYPE
  5
16
330
5
100
AcDbSymbolTableRecord
100
AcDbLinetypeTableRecord
  2
CONTINUOUS
 70
     0
  3
Solid line
 72
    65
 73
     0
 40
0.0
  0
ENDTAB
  0
TABLE
  2
LAYER
  5
2
100
AcDbSymbolTable
 70
2
  0
LAYER
  5
50
100
AcDbSymbolTableRecord
100
AcDbLayerTableRecord
  2
0
 70
0
  6
CONTINUOUS
  0
LAYER
  5
51
100
AcDbSymbolTableRecord
100
AcDbLayerTableRecord
  2
decoupe
 70
0
  6
CONTINUOUS
  0
ENDTAB
  0
TABLE
  2
STYLE
  5
3
330
0
100
AcDbSymbolTable
 70
     1
  0
STYLE
  5
11
330
3
100
AcDbSymbolTableRecord
100
AcDbTextStyleTableRecord
  2
STANDARD
 70
     0
 40
0.0
 41
1.0
 50
0.0
 71
     0
 42
2.5
  3
txt
  4

  0
ENDTAB
  0
TABLE
  2
VIEW
  5
6
330
0
100
AcDbSymbolTable
 70
     0
  0
ENDTAB
  0
TABLE
  2
UCS
  5
7
330
0
100
AcDbSymbolTable
 70
     0
  0
ENDTAB
  0
TABLE
  2
APPID
  5
9
330
0
100
AcDbSymbolTable
 70
     2
  0
APPID
  5
12
330
9
100
AcDbSymbolTableRecord
100
AcDbRegAppTableRecord
  2
ACAD
 70
     0
  0
ENDTAB
  0
TABLE
  2
DIMSTYLE
  5
A
330
0
100
AcDbSymbolTable
 70
     1
  0
DIMSTYLE
105
27
330
A
100
AcDbSymbolTableRecord
100
AcDbDimStyleTableRecord
  2
ISO-25
 70
     0
  3

  4

  5

  6

  7

 40
1.0
 41
2.5
 42
0.625
 43
3.75
 44
1.25
 45
0.0
 46
0.0
 47
0.0
 48
0.0
140
2.5
141
2.5
142
0.0
143
0.03937007874016
144
1.0
145
0.0
146
1.0
147
0.625
 71
     0
 72
     0
 73
     0
 74
     0
 75
     0
 76
     0
 77
     1
 78
     8
170
     0
171
     3
172
     1
173
     0
174
     0
175
     0
176
     0
177
     0
178
     0
270
     2
271
     2
272
     2
273
     2
274
     3
340
11
275
     0
280
     0
281
     0
282
     0
283
     0
284
     8
285
     0
286
     0
287
     3
288
     0
  0
ENDTAB
  0
TABLE
  2
BLOCK_RECORD
  5
1
330
0
100
AcDbSymbolTable
 70
     1
  0
BLOCK_RECORD
  5
1F
330
1
100
AcDbSymbolTableRecord
100
AcDbBlockTableRecord
  2
*MODEL_SPACE
  0
BLOCK_RECORD
  5
1B
330
1
100
AcDbSymbolTableRecord
100
AcDbBlockTableRecord
  2
*PAPER_SPACE
  0
ENDTAB
  0
ENDSEC
  0
SECTION
  2
BLOCKS
  0
BLOCK
  5
20
330
1F
100
AcDbEntity
  8
0
100
AcDbBlockBegin
  2
*MODEL_SPACE
 70
     0
 10
0.0
 20
0.0
 30
0.0
  3
*MODEL_SPACE
  1

  0
ENDBLK
  5
21
330
1F
100
AcDbEntity
  8
0
100
AcDbBlockEnd
  0
BLOCK
  5
1C
330
1B
100
AcDbEntity
 67
     1
  8
0
100
AcDbBlockBegin
  2
*PAPER_SPACE
  1

  0
ENDBLK
  5
1D
330
1B
100
AcDbEntity
 67
     1
  8
0
100
AcDbBlockEnd
  0
ENDSEC
  0
SECTION
  2
ENTITIES
  0
LINE
  5
100
100
AcDbEntity
  8
decoupe
 62
7
100
AcDbLine
 10
50.776243
 20
68.268497
 30
0.0
 11
50.776243
 21
84.287036
 31
0.0
  0
LINE
  5
101
100
AcDbEntity
  8
decoupe
 62
7
100
AcDbLine
 10
50.776243
 20
84.287036
 30
0.0
 11
47.048042
 21
84.287036
 31
0.0
  0
LINE
  5
102
100
AcDbEntity
  8
decoupe
 62
7
100
AcDbLine
 10
47.048042
 20
84.287036
 30
0.0
 11
43.319841
 21
84.287036
 31
0.0
  0
LINE
  5
103
100
AcDbEntity
  8
decoupe
 62
7
100
AcDbLine
 10
43.319841
 20
84.287036
 30
0.0
 11
43.245385
 21
68.544677
 31
0.0
  0
LINE
  5
104
100
AcDbEntity
  8
decoupe
 62
7
100
AcDbLine
 10
47.114042
 20
52.172619
 30
0.0
 11
50.776243
 21
52.249959
 31
0.0
  0
LINE
  5
105
100
AcDbEntity
  8
decoupe
 62
7
100
AcDbLine
 10
50.776243
 20
52.249959
 30
0.0
 11
50.776243
 21
68.268497
 31
0.0
  0
LINE
  5
106
100
AcDbEntity
  8
decoupe
 62
7
100
AcDbLine
 10
50.776243
 20
68.268497
 30
0.0
 11
50.776243
 21
68.268497
 31
0.0
  0
SPLINE
  5
107
100
AcDbEntity
  8
decoupe
 62
7
100
AcDbSpline
 70
0
 71
3
 72
13
 73
9
 74
7
 40
0.000000
 40
0.000000
 40
0.000000
 40
0.000000
 40
7.977949
 40
13.760590
 40
16.096730
 40
16.561062
 40
17.755766
 40
19.949527
 40
19.949527
 40
19.949527
 40
19.949527
 10
43.245385
 20
68.544677
 30
0.0
 10
43.125752
 20
65.817213
 30
0.0
 10
42.919405
 20
61.112805
 30
0.0
 10
43.863518
 20
56.321291
 30
0.0
 10
42.668920
 20
52.701021
 30
0.0
 10
43.964055
 20
52.117381
 30
0.0
 10
45.256680
 20
52.184355
 30
0.0
 10
46.384117
 20
52.177231
 30
0.0
 10
47.114042
 20
52.172619
 30
0.0
 11
43.245385
 21
68.544677
 31
0.0
 11
43.227133
 21
60.566749
 31
0.0
 11
43.250849
 21
54.784157
 31
0.0
 11
43.311386
 21
52.448802
 31
0.0
 11
43.728759
 21
52.245322
 31
0.0
 11
44.920324
 21
52.158780
 31
0.0
 11
47.114042
 21
52.172619
 31
0.0
  0
LINE
  5
108
100
AcDbEntity
  8
decoupe
 62
7
100
AcDbLine
 10
86.665966
 20
58.954377
 30
0.0
 11
91.152763
 21
58.878321
 31
0.0
  0
LINE
  5
109
100
AcDbEntity
  8
decoupe
 62
7
100
AcDbLine
 10
91.152763
 20
58.878321
 30
0.0
 11
92.329965
 21
55.564140
 31
0.0
  0
LINE
  5
10a
100
AcDbEntity
  8
decoupe
 62
7
100
AcDbLine
 10
92.329965
 20
55.564140
 30
0.0
 11
93.507165
 21
52.249959
 31
0.0
  0
LINE
  5
10b
100
AcDbEntity
  8
decoupe
 62
7
100
AcDbLine
 10
93.507165
 20
52.249959
 30
0.0
 11
97.499399
 21
52.172814
 31
0.0
  0
SPLINE
  5
10c
100
AcDbEntity
  8
decoupe
 62
7
100
AcDbSpline
 70
0
 71
3
 72
28
 73
24
 74
22
 40
0.000000
 40
0.000000
 40
0.000000
 40
0.000000
 40
4.945301
 40
9.337407
 40
12.225450
 40
14.711239
 40
15.888732
 40
16.249298
 40
19.402431
 40
24.741546
 40
27.724657
 40
28.161777
 40
29.127244
 40
30.421844
 40
31.634919
 40
32.161035
 40
32.432092
 40
33.921462
 40
36.303224
 40
37.890244
 40
38.142814
 40
39.020325
 40
41.658303
 40
41.658303
 40
41.658303
 40
41.658303
 10
81.084256
 20
60.811591
 30
0.0
 10
81.542839
 20
62.397628
 30
0.0
 10
82.408705
 20
65.392283
 30
0.0
 10
83.579635
 20
69.264903
 30
0.0
 10
84.413619
 20
72.487069
 30
0.0
 10
85.205182
 20
74.351135
 30
0.0
 10
85.391045
 20
75.974943
 30
0.0
 10
87.093280
 20
76.286717
 30
0.0
 10
87.028170
 20
71.509902
 30
0.0
 10
87.681873
 20
69.407994
 30
0.0
 10
90.104785
 20
65.224514
 30
0.0
 10
88.566192
 20
64.881085
 30
0.0
 10
87.692867
 20
64.838686
 30
0.0
 10
86.516970
 20
64.818218
 30
0.0
 10
85.534136
 20
64.793474
 30
0.0
 10
84.822552
 20
64.801428
 30
0.0
 10
84.234057
 20
64.271845
 30
0.0
 10
83.997776
 20
62.819963
 30
0.0
 10
83.531299
 20
61.116330
 30
0.0
 10
82.954593
 20
59.777802
 30
0.0
 10
83.187777
 20
58.818517
 30
0.0
 10
84.820046
 20
59.203334
 30
0.0
 10
85.874624
 20
59.061104
 30
0.0
 10
86.665966
 20
58.954377
 30
0.0
 11
81.084256
 21
60.811591
 31
0.0
 11
82.467984
 21
65.559359
 31
0.0
 11
83.696185
 21
69.776244
 31
0.0
 11
84.502958
 21
72.549312
 31
0.0
 11
85.237365
 21
74.924138
 31
0.0
 11
85.714240
 21
76.000743
 31
0.0
 11
86.066277
 21
76.078701
 31
0.0
 11
87.119550
 21
73.106687
 31
0.0
 11
88.568429
 21
67.967923
 31
0.0
 11
89.176547
 21
65.047453
 31
0.0
 11
88.755229
 21
64.930984
 31
0.0
 11
87.793342
 21
64.847913
 31
0.0
 11
86.499130
 21
64.816225
 31
0.0
 11
85.286190
 21
64.798120
 31
0.0
 11
84.765811
 21
64.720643
 31
0.0
 11
84.555979
 21
64.549054
 31
0.0
 11
84.032395
 21
63.154751
 31
0.0
 11
83.390262
 21
60.861182
 31
0.0
 11
83.076830
 21
59.305422
 31
0.0
 11
83.153752
 21
59.064850
 31
0.0
 11
84.028260
 21
58.992313
 31
0.0
 11
86.665966
 21
58.954377
 31
0.0
  0
LINE
  5
10d
100
AcDbEntity
  8
decoupe
 62
7
100
AcDbLine
 10
75.421586
 20
52.172379
 30
0.0
 11
78.588148
 21
52.249959
 31
0.0
  0
LINE
  5
10e
100
AcDbEntity
  8
decoupe
 62
7
100
AcDbLine
 10
78.588148
 20
52.249959
 30
0.0
 11
81.084256
 21
60.811591
 31
0.0
  0
LINE
  5
10f
100
AcDbEntity
  8
decoupe
 62
7
100
AcDbLine
 10
112.416706
 20
68.268497
 30
0.0
 11
112.416706
 21
84.287036
 31
0.0
  0
LINE
  5
110
100
AcDbEntity
  8
decoupe
 62
7
100
AcDbLine
 10
112.416706
 20
84.287036
 30
0.0
 11
108.688502
 21
84.287036
 31
0.0
  0
LINE
  5
111
100
AcDbEntity
  8
decoupe
 62
7
100
AcDbLine
 10
108.688502
 20
84.287036
 30
0.0
 11
104.960301
 21
84.287036
 31
0.0
  0
LINE
  5
112
100
AcDbEntity
  8
decoupe
 62
7
100
AcDbLine
 10
104.960301
 20
84.287036
 30
0.0
 11
104.885848
 21
68.544677
 31
0.0
  0
SPLINE
  5
113
100
AcDbEntity
  8
decoupe
 62
7
100
AcDbSpline
 70
0
 71
3
 72
37
 73
33
 74
31
 40
0.000000
 40
0.000000
 40
0.000000
 40
0.000000
 40
2.043367
 40
3.563650
 40
4.238120
 40
5.461818
 40
8.520152
 40
12.757229
 40
20.185588
 40
25.132665
 40
31.128763
 40
34.189093
 40
36.562114
 40
37.735981
 40
38.367986
 40
39.564285
 40
42.326205
 40
45.093908
 40
46.291999
 40
46.935250
 40
49.208857
 40
54.456911
 40
61.544581
 40
71.207335
 40
75.470598
 40
77.611775
 40
78.774917
 40
79.657595
 40
80.076121
 40
80.617761
 40
81.827955
 40
83.450429
 40
83.450429
 40
83.450429
 40
83.450429
 10
97.499399
 20
52.172814
 30
0.0
 10
98.196740
 20
52.159324
 30
0.0
 10
99.412908
 20
52.135798
 30
0.0
 10
100.683204
 20
52.226670
 30
0.0
 10
102.114714
 20
52.217517
 30
0.0
 10
100.957877
 20
54.369886
 30
0.0
 10
100.542271
 20
56.662704
 30
0.0
 10
98.618015
 20
61.488030
 30
0.0
 10
96.799577
 20
66.586309
 30
0.0
 10
94.670954
 20
72.358539
 30
0.0
 10
93.072552
 20
76.733915
 30
0.0
 10
91.784568
 20
80.326575
 30
0.0
 10
90.912662
 20
82.340144
 30
0.0
 10
90.490598
 20
83.687843
 30
0.0
 10
89.734230
 20
84.424393
 30
0.0
 10
88.101986
 20
84.367056
 30
0.0
 10
85.904379
 20
84.465449
 30
0.0
 10
83.711554
 20
84.367620
 30
0.0
 10
82.065778
 20
84.423892
 30
0.0
 10
81.050286
 20
83.403909
 30
0.0
 10
80.455720
 20
80.666078
 30
0.0
 10
78.526400
 20
76.228531
 30
0.0
 10
76.181520
 20
69.252028
 30
0.0
 10
73.913282
 20
62.661845
 30
0.0
 10
72.059430
 20
57.582835
 30
0.0
 10
71.832601
 20
55.072872
 30
0.0
 10
71.862913
 20
53.647187
 30
0.0
 10
71.945557
 20
52.889032
 30
0.0
 10
71.986065
 20
52.160289
 30
0.0
 10
72.885729
 20
52.235681
 30
0.0
 10
73.903148
 20
52.122899
 30
0.0
 10
74.868601
 20
52.154359
 30
0.0
 10
75.421586
 20
52.172379
 30
0.0
 11
97.499399
 21
52.172814
 31
0.0
 11
99.542752
 21
52.165202
 31
0.0
 11
101.062068
 21
52.219406
 31
0.0
 11
101.728425
 21
52.323701
 31
0.0
 11
101.450637
 21
53.515452
 31
0.0
 11
100.494766
 21
56.420571
 31
0.0
 11
99.067755
 21
60.410116
 31
0.0
 11
96.499420
 21
67.380350
 31
0.0
 11
94.796351
 21
72.025038
 31
0.0
 11
92.743223
 21
77.658674
 31
0.0
 11
91.673894
 21
80.526105
 31
0.0
 11
90.803578
 21
82.733768
 31
0.0
 11
90.320695
 21
83.803716
 31
0.0
 11
89.853754
 21
84.229622
 31
0.0
 11
88.669140
 21
84.396418
 31
0.0
 11
85.907369
 21
84.425124
 31
0.0
 11
83.139814
 21
84.396466
 31
0.0
 11
81.953638
 21
84.227919
 31
0.0
 11
81.477304
 21
83.795625
 31
0.0
 11
80.631605
 21
81.685156
 31
0.0
 11
78.826204
 21
76.757418
 31
0.0
 11
76.451962
 21
70.079241
 31
0.0
 11
73.280572
 21
60.951750
 31
0.0
 11
72.056962
 21
56.867856
 31
0.0
 11
71.854918
 21
54.736233
 31
0.0
 11
71.882333
 21
53.573414
 31
0.0
 11
71.954205
 21
52.693667
 31
0.0
 11
72.054971
 21
52.287452
 31
0.0
 11
72.589674
 21
52.201043
 31
0.0
 11
73.799161
 21
52.159702
 31
0.0
 11
75.421586
 21
52.172379
 31
0.0
  0
LINE
  5
114
100
AcDbEntity
  8
decoupe
 62
7
100
AcDbLine
 10
108.754503
 20
52.172619
 30
0.0
 11
112.416706
 21
52.249959
 31
0.0
  0
LINE
  5
115
100
AcDbEntity
  8
decoupe
 62
7
100
AcDbLine
 10
112.416706
 20
52.249959
 30
0.0
 11
112.416706
 21
68.268497
 31
0.0
  0
LINE
  5
116
100
AcDbEntity
  8
decoupe
 62
7
100
AcDbLine
 10
112.416706
 20
68.268497
 30
0.0
 11
112.416706
 21
68.268497
 31
0.0
  0
SPLINE
  5
117
100
AcDbEntity
  8
decoupe
 62
7
100
AcDbSpline
 70
0
 71
3
 72
13
 73
9
 74
7
 40
0.000000
 40
0.000000
 40
0.000000
 40
0.000000
 40
7.977949
 40
13.760590
 40
16.096730
 40
16.561061
 40
17.755764
 40
19.949525
 40
19.949525
 40
19.949525
 40
19.949525
 10
104.885848
 20
68.544677
 30
0.0
 10
104.766215
 20
65.817213
 30
0.0
 10
104.559868
 20
61.112806
 30
0.0
 10
105.503982
 20
56.321291
 30
0.0
 10
104.309384
 20
52.701022
 30
0.0
 10
105.604517
 20
52.117381
 30
0.0
 10
106.897142
 20
52.184355
 30
0.0
 10
108.024578
 20
52.177231
 30
0.0
 10
108.754503
 20
52.172619
 30
0.0
 11
104.885848
 21
68.544677
 31
0.0
 11
104.867597
 21
60.566749
 31
0.0
 11
104.891312
 21
54.784157
 31
0.0
 11
104.951849
 21
52.448802
 31
0.0
 11
105.369222
 21
52.245322
 31
0.0
 11
106.560785
 21
52.158780
 31
0.0
 11
108.754503
 21
52.172619
 31
0.0
  0
LINE
  5
118
100
AcDbEntity
  8
decoupe
 62
7
100
AcDbLine
 10
117.273795
 20
84.649917
 30
0.0
 11
114.979518
 21
84.563216
 31
0.0
  0
LINE
  5
119
100
AcDbEntity
  8
decoupe
 62
7
100
AcDbLine
 10
114.979518
 20
84.563216
 30
0.0
 11
114.979518
 21
81.801400
 31
0.0
  0
LINE
  5
11a
100
AcDbEntity
  8
decoupe
 62
7
100
AcDbLine
 10
114.979518
 20
81.801400
 30
0.0
 11
114.979518
 21
79.039582
 31
0.0
  0
LINE
  5
11b
100
AcDbEntity
  8
decoupe
 62
7
100
AcDbLine
 10
114.979518
 20
79.039582
 30
0.0
 11
118.134150
 21
78.873982
 31
0.0
  0
SPLINE
  5
11c
100
AcDbEntity
  8
decoupe
 62
7
100
AcDbSpline
 70
0
 71
3
 72
28
 73
24
 74
22
 40
0.000000
 40
0.000000
 40
0.000000
 40
0.000000
 40
0.224859
 40
0.663612
 40
1.241805
 40
2.829329
 40
4.976521
 40
8.216972
 40
10.808381
 40
12.638229
 40
14.306606
 40
14.909275
 40
15.512267
 40
16.763471
 40
19.186554
 40
21.511906
 40
24.212479
 40
27.923594
 40
31.211916
 40
34.959068
 40
37.320613
 40
40.625956
 40
44.045941
 40
44.045941
 40
44.045941
 40
44.045941
 10
133.560439
 20
52.284156
 30
0.0
 10
133.571464
 20
52.359165
 30
0.0
 10
133.604002
 20
52.580533
 30
0.0
 10
133.441576
 20
52.978426
 30
0.0
 10
133.084691
 20
53.759539
 30
0.0
 10
132.497630
 20
55.083737
 30
0.0
 10
131.981228
 20
57.357036
 30
0.0
 10
131.505270
 20
59.974067
 30
0.0
 10
131.065449
 20
62.483799
 30
0.0
 10
130.453115
 20
64.449574
 30
0.0
 10
129.798741
 20
65.607238
 30
0.0
 10
129.201226
 20
66.448748
 30
0.0
 10
129.536208
 20
67.281062
 30
0.0
 10
130.397707
 20
68.372571
 30
0.0
 10
131.424107
 20
70.136160
 30
0.0
 10
132.030192
 20
72.571925
 30
0.0
 10
132.037056
 20
75.490407
 30
0.0
 10
131.557405
 20
78.762290
 30
0.0
 10
129.444573
 20
81.785546
 30
0.0
 10
126.738611
 20
83.543093
 30
0.0
 10
123.672519
 20
84.287639
 30
0.0
 10
120.657798
 20
84.639221
 30
0.0
 10
118.414543
 20
84.646311
 30
0.0
 10
117.273795
 20
84.649917
 30
0.0
 11
133.560439
 21
52.284156
 31
0.0
 11
133.579813
 21
52.508179
 31
0.0
 11
133.458635
 21
52.929866
 31
0.0
 11
133.223138
 21
53.457927
 31
0.0
 11
132.615705
 21
54.924643
 31
0.0
 11
132.074475
 21
57.002504
 31
0.0
 11
131.470598
 21
60.186189
 31
0.0
 11
130.956194
 21
62.726030
 31
0.0
 11
130.380392
 21
64.462923
 31
0.0
 11
129.569450
 21
65.920953
 31
0.0
 11
129.304999
 21
66.462503
 31
0.0
 11
129.460587
 21
67.045076
 31
0.0
 11
130.148751
 21
68.090037
 31
0.0
 11
131.329899
 21
70.205744
 31
0.0
 11
131.912970
 21
72.456809
 31
0.0
 11
131.979122
 21
75.156571
 31
0.0
 11
131.246948
 21
78.794743
 31
0.0
 11
129.394375
 21
81.511549
 31
0.0
 11
126.252879
 21
83.554133
 31
0.0
 11
123.973931
 21
84.173239
 31
0.0
 11
120.692930
 21
84.573644
 31
0.0
 11
117.273795
 21
84.649917
 31
0.0
  0
LINE
  5
11d
100
AcDbEntity
  8
decoupe
 62
7
100
AcDbLine
 10
117.847364
 20
69.994103
 30
0.0
 11
114.979518
 21
69.925588
 31
0.0
  0
LINE
  5
11e
100
AcDbEntity
  8
decoupe
 62
7
100
AcDbLine
 10
114.979518
 20
69.925588
 30
0.0
 11
114.979518
 21
67.025678
 31
0.0
  0
LINE
  5
11f
100
AcDbEntity
  8
decoupe
 62
7
100
AcDbLine
 10
114.979518
 20
67.025678
 30
0.0
 11
114.979518
 21
64.125772
 31
0.0
  0
LINE
  5
120
100
AcDbEntity
  8
decoupe
 62
7
100
AcDbLine
 10
114.979518
 20
64.125772
 30
0.0
 11
118.079607
 21
63.956461
 31
0.0
  0
SPLINE
  5
121
100
AcDbEntity
  8
decoupe
 62
7
100
AcDbSpline
 70
0
 71
3
 72
16
 73
12
 74
10
 40
0.000000
 40
0.000000
 40
0.000000
 40
0.000000
 40
3.267605
 40
5.181483
 40
7.166943
 40
8.896968
 40
10.681473
 40
12.438926
 40
13.748989
 40
15.192528
 40
17.852711
 40
17.852711
 40
17.852711
 40
17.852711
 10
118.134150
 20
78.873982
 30
0.0
 10
119.221326
 20
78.842258
 30
0.0
 10
120.945274
 20
78.791953
 30
0.0
 10
123.291142
 20
77.888983
 30
0.0
 10
124.224279
 20
76.134538
 30
0.0
 10
124.586120
 20
74.317829
 30
0.0
 10
124.150244
 20
72.543763
 30
0.0
 10
123.146158
 20
71.242737
 30
0.0
 10
121.913950
 20
70.318015
 30
0.0
 10
120.093785
 20
70.019278
 30
0.0
 10
118.730861
 20
70.004004
 30
0.0
 10
117.847364
 20
69.994103
 30
0.0
 11
118.134150
 21
78.873982
 31
0.0
 11
121.384559
 21
78.539193
 31
0.0
 11
123.115951
 21
77.723590
 31
0.0
 11
124.160551
 21
76.035140
 31
0.0
 11
124.456101
 21
74.330547
 31
0.0
 11
124.036286
 21
72.596126
 31
0.0
 11
122.986907
 21
71.186359
 31
0.0
 11
121.911107
 21
70.438749
 31
0.0
 11
120.504909
 21
70.112543
 31
0.0
 11
117.847364
 21
69.994103
 31
0.0
  0
LINE
  5
122
100
AcDbEntity
  8
decoupe
 62
7
100
AcDbLine
 10
133.560439
 20
52.284156
 30
0.0
 11
133.560439
 21
52.284156
 31
0.0
  0
LINE
  5
123
100
AcDbEntity
  8
decoupe
 62
7
100
AcDbLine
 10
193.235131
 20
57.773742
 30
0.0
 11
193.151895
 21
55.309810
 31
0.0
  0
SPLINE
  5
124
100
AcDbEntity
  8
decoupe
 62
7
100
AcDbSpline
 70
0
 71
3
 72
19
 73
15
 74
13
 40
0.000000
 40
0.000000
 40
0.000000
 40
0.000000
 40
3.490455
 40
5.694006
 40
9.203749
 40
12.332893
 40
14.119479
 40
15.297209
 40
16.049322
 40
17.147289
 40
19.619131
 40
21.414926
 40
22.743867
 40
23.322377
 40
23.322377
 40
23.322377
 40
23.322377
 10
118.079607
 20
63.956461
 30
0.0
 10
119.286437
 20
63.980128
 30
0.0
 10
121.255148
 20
64.018735
 30
0.0
 10
123.750174
 20
61.820617
 30
0.0
 10
123.965047
 20
58.713424
 30
0.0
 10
124.542804
 20
56.011769
 30
0.0
 10
125.007321
 20
54.006309
 30
0.0
 10
125.631776
 20
52.935082
 30
0.0
 10
126.361436
 20
52.171776
 30
0.0
 10
127.888947
 20
52.124452
 30
0.0
 10
129.631206
 20
52.098492
 30
0.0
 10
131.505584
 20
52.136486
 30
0.0
 10
132.742398
 20
52.146635
 30
0.0
 10
133.370072
 20
52.252154
 30
0.0
 10
133.560439
 20
52.284156
 30
0.0
 11
118.079607
 21
63.956461
 31
0.0
 11
121.540342
 21
63.501940
 31
0.0
 11
123.186340
 21
62.036904
 31
0.0
 11
124.056442
 21
58.636724
 31
0.0
 11
124.650123
 21
55.564415
 31
0.0
 11
125.152576
 21
53.849939
 31
0.0
 11
125.755730
 21
52.838378
 31
0.0
 11
126.312471
 21
52.332698
 31
0.0
 11
127.393673
 21
52.141560
 31
0.0
 11
129.865337
 21
52.111868
 31
0.0
 11
131.660977
 21
52.135478
 31
0.0
 11
132.988476
 21
52.197374
 31
0.0
 11
133.560439
 21
52.284156
 31
0.0
  0
LINE
  5
125
100
AcDbEntity
  8
decoupe
 62
7
100
AcDbLine
 10
205.057595
 20
52.177803
 30
0.0
 11
216.751628
 21
52.250013
 31
0.0
  0
LINE
  5
126
100
AcDbEntity
  8
decoupe
 62
7
100
AcDbLine
 10
216.751628
 20
52.250013
 30
0.0
 11
216.751628
 21
55.011602
 31
0.0
  0
LINE
  5
127
100
AcDbEntity
  8
decoupe
 62
7
100
AcDbLine
 10
216.751628
 20
55.011602
 30
0.0
 11
216.751628
 21
57.773742
 31
0.0
  0
SPLINE
  5
128
100
AcDbEntity
  8
decoupe
 62
7
100
AcDbSpline
 70
0
 71
3
 72
13
 73
9
 74
7
 40
0.000000
 40
0.000000
 40
0.000000
 40
0.000000
 40
1.291886
 40
2.310193
 40
2.838000
 40
3.861514
 40
7.412201
 40
14.705933
 40
14.705933
 40
14.705933
 40
14.705933
 10
193.151895
 20
55.309810
 30
0.0
 10
193.137046
 20
54.873659
 30
0.0
 10
193.110490
 20
54.093720
 30
0.0
 10
193.166893
 20
53.201396
 30
0.0
 10
193.127288
 20
52.212951
 30
0.0
 10
195.347421
 20
52.306778
 30
0.0
 10
198.780718
 20
52.044807
 30
0.0
 10
202.533531
 20
52.124323
 30
0.0
 10
205.057595
 20
52.177803
 30
0.0
 11
193.151895
 21
55.309810
 31
0.0
 11
193.130008
 21
54.018109
 31
0.0
 11
193.152975
 21
53.000061
 31
0.0
 11
193.215839
 21
52.476011
 31
0.0
 11
194.214320
 21
52.251036
 31
0.0
 11
197.763881
 21
52.161617
 31
0.0
 11
205.057595
 21
52.177803
 31
0.0
  0
LINE
  5
129
100
AcDbEntity
  8
decoupe
 62
7
100
AcDbLine
 10
200.611686
 20
57.811396
 30
0.0
 11
216.719144
 21
77.992673
 31
0.0
  0
LINE
  5
12a
100
AcDbEntity
  8
decoupe
 62
7
100
AcDbLine
 10
216.719144
 20
77.992673
 30
0.0
 11
216.751628
 21
78.763467
 31
0.0
  0
LINE
  5
12b
100
AcDbEntity
  8
decoupe
 62
7
100
AcDbLine
 10
216.751628
 20
78.763467
 30
0.0
 11
216.751628
 21
81.525057
 31
0.0
  0
LINE
  5
12c
100
AcDbEntity
  8
decoupe
 62
7
100
AcDbLine
 10
216.751628
 20
81.525057
 30
0.0
 11
216.751628
 21
84.287197
 31
0.0
  0
LINE
  5
12d
100
AcDbEntity
  8
decoupe
 62
7
100
AcDbLine
 10
216.751628
 20
84.287197
 30
0.0
 11
205.136970
 21
84.287197
 31
0.0
  0
LINE
  5
12e
100
AcDbEntity
  8
decoupe
 62
7
100
AcDbLine
 10
205.136970
 20
84.287197
 30
0.0
 11
193.521762
 21
84.287197
 31
0.0
  0
LINE
  5
12f
100
AcDbEntity
  8
decoupe
 62
7
100
AcDbLine
 10
193.521762
 20
84.287197
 30
0.0
 11
193.438529
 21
81.823264
 31
0.0
  0
SPLINE
  5
130
100
AcDbEntity
  8
decoupe
 62
7
100
AcDbSpline
 70
0
 71
3
 72
10
 73
6
 74
4
 40
0.000000
 40
0.000000
 40
0.000000
 40
0.000000
 40
5.380078
 40
10.760041
 40
16.140053
 40
16.140053
 40
16.140053
 40
16.140053
 10
216.751628
 20
57.773742
 30
0.0
 10
214.958271
 20
57.771173
 30
0.0
 10
211.371595
 20
57.766034
 30
0.0
 10
205.991560
 20
57.773810
 30
0.0
 10
202.404983
 20
57.798867
 30
0.0
 10
200.611686
 20
57.811396
 30
0.0
 11
216.751628
 21
57.773742
 31
0.0
 11
211.371553
 21
57.768615
 31
0.0
 11
205.991600
 21
57.778778
 31
0.0
 11
200.611686
 21
57.811396
 31
0.0
  0
LINE
  5
131
100
AcDbEntity
  8
decoupe
 62
7
100
AcDbLine
 10
205.200910
 20
78.691258
 30
0.0
 11
209.740590
 21
78.719638
 31
0.0
  0
SPLINE
  5
132
100
AcDbEntity
  8
decoupe
 62
7
100
AcDbSpline
 70
0
 71
3
 72
13
 73
9
 74
7
 40
0.000000
 40
0.000000
 40
0.000000
 40
0.000000
 40
1.291880
 40
2.310184
 40
2.837999
 40
3.851124
 40
7.359338
 40
14.562890
 40
14.562890
 40
14.562890
 40
14.562890
 10
193.438529
 20
81.823264
 30
0.0
 10
193.423638
 20
81.387094
 30
0.0
 10
193.397011
 20
80.607121
 30
0.0
 10
193.453826
 20
79.714997
 30
0.0
 10
193.413383
 20
78.730053
 30
0.0
 10
195.607409
 20
78.815439
 30
0.0
 10
199.002656
 20
78.562133
 30
0.0
 10
202.708660
 20
78.639338
 30
0.0
 10
205.200910
 20
78.691258
 30
0.0
 11
193.438529
 21
81.823264
 31
0.0
 11
193.416647
 21
80.531569
 31
0.0
 11
193.439620
 21
79.513525
 31
0.0
 11
193.502469
 21
78.989465
 31
0.0
 11
194.490302
 21
78.764501
 31
0.0
 11
197.997376
 21
78.675072
 31
0.0
 11
205.200910
 21
78.691258
 31
0.0
  0
SPLINE
  5
133
100
AcDbEntity
  8
decoupe
 62
7
100
AcDbSpline
 70
0
 71
3
 72
10
 73
6
 74
4
 40
0.000000
 40
0.000000
 40
0.000000
 40
0.000000
 40
4.426695
 40
8.719517
 40
12.817697
 40
12.817697
 40
12.817697
 40
12.817697
 10
209.740590
 20
78.719638
 30
0.0
 10
208.804399
 20
77.578921
 30
0.0
 10
206.960329
 20
75.331984
 30
0.0
 10
204.127901
 20
72.132455
 30
0.0
 10
202.317538
 20
70.000334
 30
0.0
 10
201.433354
 20
68.959002
 30
0.0
 11
209.740590
 21
78.719638
 31
0.0
 11
206.910689
 21
75.315627
 31
0.0
 11
204.096370
 21
72.074034
 31
0.0
 11
201.433354
 21
68.959002
 31
0.0
  0
LINE
  5
134
100
AcDbEntity
  8
decoupe
 62
7
100
AcDbLine
 10
193.315855
 20
58.650392
 30
0.0
 11
193.235131
 21
57.773742
 31
0.0
  0
LINE
  5
135
100
AcDbEntity
  8
decoupe
 62
7
100
AcDbLine
 10
239.712613
 20
55.011775
 30
0.0
 11
239.712613
 21
57.773593
 31
0.0
  0
LINE
  5
136
100
AcDbEntity
  8
decoupe
 62
7
100
AcDbLine
 10
239.712613
 20
57.773593
 30
0.0
 11
236.127804
 21
57.773593
 31
0.0
  0
LINE
  5
137
100
AcDbEntity
  8
decoupe
 62
7
100
AcDbLine
 10
236.127804
 20
57.773593
 30
0.0
 11
232.542994
 21
57.773593
 31
0.0
  0
LINE
  5
138
100
AcDbEntity
  8
decoupe
 62
7
100
AcDbLine
 10
232.542994
 20
57.773593
 30
0.0
 11
232.459426
 21
55.309815
 31
0.0
  0
SPLINE
  5
139
100
AcDbEntity
  8
decoupe
 62
7
100
AcDbSpline
 70
0
 71
3
 72
10
 73
6
 74
4
 40
0.000000
 40
0.000000
 40
0.000000
 40
0.000000
 40
4.323536
 40
8.808294
 40
13.125217
 40
13.125217
 40
13.125217
 40
13.125217
 10
201.433354
 20
68.959002
 30
0.0
 10
200.530537
 20
67.835780
 30
0.0
 10
198.691239
 20
65.547452
 30
0.0
 10
195.843786
 20
62.221435
 30
0.0
 10
194.147719
 20
59.825511
 30
0.0
 10
193.315855
 20
58.650392
 30
0.0
 11
201.433354
 21
68.959002
 31
0.0
 11
198.707649
 21
65.602888
 31
0.0
 11
195.862783
 21
62.135932
 31
0.0
 11
193.315855
 21
58.650392
 31
0.0
  0
LINE
  5
13a
100
AcDbEntity
  8
decoupe
 62
7
100
AcDbLine
 10
236.193909
 20
52.172368
 30
0.0
 11
239.712613
 21
52.249959
 31
0.0
  0
LINE
  5
13b
100
AcDbEntity
  8
decoupe
 62
7
100
AcDbLine
 10
239.712613
 20
52.249959
 30
0.0
 11
239.712613
 21
55.011775
 31
0.0
  0
LINE
  5
13c
100
AcDbEntity
  8
decoupe
 62
7
100
AcDbLine
 10
239.712613
 20
55.011775
 30
0.0
 11
239.712613
 21
55.011775
 31
0.0
  0
LINE
  5
13d
100
AcDbEntity
  8
decoupe
 62
7
100
AcDbLine
 10
239.712613
 20
71.996949
 30
0.0
 11
239.712613
 21
84.287036
 31
0.0
  0
LINE
  5
13e
100
AcDbEntity
  8
decoupe
 62
7
100
AcDbLine
 10
239.712613
 20
84.287036
 30
0.0
 11
236.127804
 21
84.287036
 31
0.0
  0
LINE
  5
13f
100
AcDbEntity
  8
decoupe
 62
7
100
AcDbLine
 10
236.127804
 20
84.287036
 30
0.0
 11
232.542994
 21
84.287036
 31
0.0
  0
LINE
  5
140
100
AcDbEntity
  8
decoupe
 62
7
100
AcDbLine
 10
232.542994
 20
84.287036
 30
0.0
 11
232.468174
 21
72.273132
 31
0.0
  0
SPLINE
  5
141
100
AcDbEntity
  8
decoupe
 62
7
100
AcDbSpline
 70
0
 71
3
 72
13
 73
9
 74
7
 40
0.000000
 40
0.000000
 40
0.000000
 40
0.000000
 40
1.292670
 40
2.313029
 40
2.843736
 40
3.292468
 40
4.423297
 40
6.574460
 40
6.574460
 40
6.574460
 40
6.574460
 10
232.459426
 20
55.309815
 30
0.0
 10
232.442172
 20
54.873743
 30
0.0
 10
232.411300
 20
54.093461
 30
0.0
 10
232.492009
 20
53.196056
 30
0.0
 10
232.416569
 20
52.433016
 30
0.0
 10
233.159264
 20
52.131765
 30
0.0
 10
234.369232
 20
52.172613
 30
0.0
 10
235.471460
 20
52.172465
 30
0.0
 10
236.193909
 20
52.172368
 30
0.0
 11
232.459426
 21
55.309815
 31
0.0
 11
232.437811
 21
54.017326
 31
0.0
 11
232.461534
 21
52.997243
 31
0.0
 11
232.525530
 21
52.470409
 31
0.0
 11
232.915684
 21
52.248731
 31
0.0
 11
234.042799
 21
52.157157
 31
0.0
 11
236.193909
 21
52.172368
 31
0.0
  0
LINE
  5
142
100
AcDbEntity
  8
decoupe
 62
7
100
AcDbLine
 10
236.193909
 20
59.629274
 30
0.0
 11
239.712613
 21
59.706866
 31
0.0
  0
LINE
  5
143
100
AcDbEntity
  8
decoupe
 62
7
100
AcDbLine
 10
239.712613
 20
59.706866
 30
0.0
 11
239.712613
 21
71.996949
 31
0.0
  0
LINE
  5
144
100
AcDbEntity
  8
decoupe
 62
7
100
AcDbLine
 10
239.712613
 20
71.996949
 30
0.0
 11
239.712613
 21
71.996949
 31
0.0
  0
SPLINE
  5
145
100
AcDbEntity
  8
decoupe
 62
7
100
AcDbSpline
 70
0
 71
3
 72
13
 73
9
 74
7
 40
0.000000
 40
0.000000
 40
0.000000
 40
0.000000
 40
6.099956
 40
10.543221
 40
12.368780
 40
12.822763
 40
13.974315
 40
16.079775
 40
16.079775
 40
16.079775
 40
16.079775
 10
232.468174
 20
72.273132
 30
0.0
 10
232.380714
 20
70.191256
 30
0.0
 10
232.229548
 20
66.592923
 30
0.0
 10
232.907294
 20
62.882164
 30
0.0
 10
232.043489
 20
60.082204
 30
0.0
 10
233.168038
 20
59.579024
 30
0.0
 10
234.407407
 20
59.637666
 30
0.0
 10
235.492477
 20
59.632569
 30
0.0
 10
236.193909
 20
59.629274
 30
0.0
 11
232.468174
 21
72.273132
 31
0.0
 11
232.449780
 21
66.173204
 31
0.0
 11
232.473510
 21
61.730002
 31
0.0
 11
232.534277
 21
59.905454
 31
0.0
 11
232.940206
 21
59.702179
 31
0.0
 11
234.088493
 21
59.615521
 31
0.0
 11
236.193909
 21
59.629274
 31
0.0
  0
LINE
  5
146
100
AcDbEntity
  8
decoupe
 62
7
100
AcDbLine
 10
56.905615
 20
84.644673
 30
0.0
 11
54.467943
 21
84.563216
 31
0.0
  0
LINE
  5
147
100
AcDbEntity
  8
decoupe
 62
7
100
AcDbLine
 10
54.467943
 20
84.563216
 30
0.0
 11
54.467943
 21
81.663309
 31
0.0
  0
LINE
  5
148
100
AcDbEntity
  8
decoupe
 62
7
100
AcDbLine
 10
54.467943
 20
81.663309
 30
0.0
 11
54.467943
 21
78.763399
 31
0.0
  0
LINE
  5
149
100
AcDbEntity
  8
decoupe
 62
7
100
AcDbLine
 10
54.467943
 20
78.763399
 30
0.0
 11
57.622575
 21
78.606614
 31
0.0
  0
SPLINE
  5
14a
100
AcDbEntity
  8
decoupe
 62
7
100
AcDbSpline
 70
0
 71
3
 72
16
 73
12
 74
10
 40
0.000000
 40
0.000000
 40
0.000000
 40
0.000000
 40
2.289534
 40
4.597254
 40
6.902302
 40
9.399343
 40
11.967968
 40
15.016022
 40
21.677138
 40
27.846010
 40
36.239451
 40
36.239451
 40
36.239451
 40
36.239451
 10
61.962194
 20
63.438185
 30
0.0
 10
62.711255
 20
63.593732
 30
0.0
 10
64.215327
 20
63.906061
 30
0.0
 10
66.332857
 20
64.843848
 30
0.0
 10
68.355751
 20
66.089884
 30
0.0
 10
70.126293
 20
67.860237
 30
0.0
 10
71.201866
 20
70.408601
 30
0.0
 10
71.708798
 20
74.454707
 30
0.0
 10
70.996433
 20
80.141736
 30
0.0
 10
64.678497
 20
84.617053
 30
0.0
 10
59.747658
 20
84.634574
 30
0.0
 10
56.905615
 20
84.644673
 30
0.0
 11
61.962194
 21
63.438185
 31
0.0
 11
64.186138
 21
63.982279
 31
0.0
 11
66.307972
 21
64.889688
 31
0.0
 11
68.252100
 21
66.128079
 31
0.0
 11
69.976593
 21
67.933997
 31
0.0
 11
71.031094
 21
70.276189
 31
0.0
 11
71.477180
 21
73.291424
 31
0.0
 11
70.100004
 21
79.808620
 31
0.0
 11
65.233799
 21
83.600061
 31
0.0
 11
56.905615
 21
84.644673
 31
0.0
  0
LINE
  5
14b
100
AcDbEntity
  8
decoupe
 62
7
100
AcDbLine
 10
57.479184
 20
69.235131
 30
0.0
 11
54.467943
 21
69.097043
 31
0.0
  0
LINE
  5
14c
100
AcDbEntity
  8
decoupe
 62
7
100
AcDbLine
 10
54.467943
 20
69.097043
 30
0.0
 11
54.384823
 21
66.494034
 31
0.0
  0
SPLINE
  5
14d
100
AcDbEntity
  8
decoupe
 62
7
100
AcDbSpline
 70
0
 71
3
 72
16
 73
12
 74
10
 40
0.000000
 40
0.000000
 40
0.000000
 40
0.000000
 40
3.307218
 40
5.245779
 40
7.266755
 40
8.807939
 40
10.398142
 40
11.889258
 40
13.508842
 40
15.305001
 40
17.959705
 40
17.959705
 40
17.959705
 40
17.959705
 10
57.622575
 20
78.606614
 30
0.0
 10
58.722404
 20
78.577736
 30
0.0
 10
60.466908
 20
78.531931
 30
0.0
 10
62.848326
 20
77.575336
 30
0.0
 10
63.655009
 20
75.795298
 30
0.0
 10
63.970528
 20
74.107156
 30
0.0
 10
63.747929
 20
72.547511
 30
0.0
 10
63.055264
 20
71.117321
 30
0.0
 10
61.826393
 20
69.956813
 30
0.0
 10
59.845136
 20
69.356578
 30
0.0
 10
58.363125
 20
69.280505
 30
0.0
 10
57.479184
 20
69.235131
 30
0.0
 11
57.622575
 21
78.606614
 31
0.0
 11
60.911969
 21
78.263711
 31
0.0
 11
62.649469
 21
77.403994
 31
0.0
 11
63.627437
 21
75.635401
 31
0.0
 11
63.884548
 21
74.115815
 31
0.0
 11
63.661754
 21
72.541297
 31
0.0
 11
63.000506
 21
71.204816
 31
0.0
 11
61.812300
 21
70.104264
 31
0.0
 11
60.120566
 21
69.500752
 31
0.0
 11
57.479184
 21
69.235131
 31
0.0
  0
LINE
  5
14e
100
AcDbEntity
  8
decoupe
 62
7
100
AcDbLine
 10
61.962194
 20
63.438185
 30
0.0
 11
61.962194
 21
63.438185
 31
0.0
  0
LINE
  5
14f
100
AcDbEntity
  8
decoupe
 62
7
100
AcDbLine
 10
67.177722
 20
119.638290
 30
0.0
 11
67.177722
 21
135.656828
 31
0.0
  0
LINE
  5
150
100
AcDbEntity
  8
decoupe
 62
7
100
AcDbLine
 10
67.177722
 20
135.656828
 30
0.0
 11
63.615536
 21
135.734753
 31
0.0
  0
SPLINE
  5
151
100
AcDbEntity
  8
decoupe
 62
7
100
AcDbSpline
 70
0
 71
3
 72
13
 73
9
 74
7
 40
0.000000
 40
0.000000
 40
0.000000
 40
0.000000
 40
1.361468
 40
2.428330
 40
2.972913
 40
4.442321
 40
7.428193
 40
10.533102
 40
10.533102
 40
10.533102
 40
10.533102
 10
54.384823
 20
66.494034
 30
0.0
 10
54.370953
 20
66.035510
 30
0.0
 10
54.346213
 20
65.217681
 30
0.0
 10
54.392754
 20
64.272059
 30
0.0
 10
54.373518
 20
63.118434
 30
0.0
 10
56.658746
 20
63.295228
 30
0.0
 10
58.821151
 20
63.069553
 30
0.0
 10
60.901626
 20
63.313717
 30
0.0
 10
61.962194
 20
63.438185
 30
0.0
 11
54.384823
 21
66.494034
 31
0.0
 11
54.362938
 21
65.132741
 31
0.0
 11
54.385463
 21
64.066118
 31
0.0
 11
54.447516
 21
63.525081
 31
0.0
 11
55.882747
 21
63.210004
 31
0.0
 11
58.868418
 21
63.175479
 31
0.0
 11
61.962194
 21
63.438185
 31
0.0
  0
LINE
  5
152
100
AcDbEntity
  8
decoupe
 62
7
100
AcDbLine
 10
63.555093
 20
103.542697
 30
0.0
 11
67.177722
 21
103.619752
 31
0.0
  0
LINE
  5
153
100
AcDbEntity
  8
decoupe
 62
7
100
AcDbLine
 10
67.177722
 20
103.619752
 30
0.0
 11
67.177722
 21
119.638290
 31
0.0
  0
LINE
  5
154
100
AcDbEntity
  8
decoupe
 62
7
100
AcDbLine
 10
67.177722
 20
119.638290
 30
0.0
 11
67.177722
 21
119.638290
 31
0.0
  0
LINE
  5
155
100
AcDbEntity
  8
decoupe
 62
7
100
AcDbLine
 10
98.113969
 20
119.638290
 30
0.0
 11
98.113969
 21
135.656828
 31
0.0
  0
LINE
  5
156
100
AcDbEntity
  8
decoupe
 62
7
100
AcDbLine
 10
98.113969
 20
135.656828
 30
0.0
 11
94.385768
 21
135.656828
 31
0.0
  0
LINE
  5
157
100
AcDbEntity
  8
decoupe
 62
7
100
AcDbLine
 10
94.385768
 20
135.656828
 30
0.0
 11
90.657567
 21
135.656828
 31
0.0
  0
LINE
  5
158
100
AcDbEntity
  8
decoupe
 62
7
100
AcDbLine
 10
90.657567
 20
135.656828
 30
0.0
 11
90.583111
 21
119.914473
 31
0.0
  0
SPLINE
  5
159
100
AcDbEntity
  8
decoupe
 62
7
100
AcDbSpline
 70
0
 71
3
 72
16
 73
12
 74
10
 40
0.000000
 40
0.000000
 40
0.000000
 40
0.000000
 40
2.126324
 40
3.327812
 40
3.840175
 40
12.054324
 40
27.004462
 40
35.392155
 40
35.848950
 40
36.957838
 40
39.293194
 40
39.293194
 40
39.293194
 40
39.293194
 10
63.615536
 20
135.734753
 30
0.0
 10
62.910414
 20
135.732397
 30
0.0
 10
61.806860
 20
135.728712
 30
0.0
 10
60.502536
 20
135.780967
 30
0.0
 10
57.395183
 20
134.385398
 30
0.0
 10
61.219916
 20
123.611328
 30
0.0
 10
60.818953
 20
115.430289
 30
0.0
 10
57.679092
 20
105.702553
 30
0.0
 10
60.273002
 20
103.448123
 30
0.0
 10
61.670805
 20
103.579019
 30
0.0
 10
62.793711
 20
103.557373
 30
0.0
 10
63.555093
 20
103.542697
 30
0.0
 11
63.615536
 21
135.734753
 31
0.0
 11
61.489251
 21
135.747680
 31
0.0
 11
60.290932
 21
135.660482
 31
0.0
 11
59.820031
 21
135.458570
 31
0.0
 11
59.624237
 21
127.246755
 31
0.0
 11
59.593511
 21
112.296648
 31
0.0
 11
59.755193
 21
103.910514
 31
0.0
 11
60.116084
 21
103.630480
 31
0.0
 11
61.219814
 21
103.523643
 31
0.0
 11
63.555093
 21
103.542697
 31
0.0
  0
LINE
  5
15a
100
AcDbEntity
  8
decoupe
 62
7
100
AcDbLine
 10
94.451768
 20
103.542414
 30
0.0
 11
98.113969
 21
103.619752
 31
0.0
  0
LINE
  5
15b
100
AcDbEntity
  8
decoupe
 62
7
100
AcDbLine
 10
98.113969
 20
103.619752
 30
0.0
 11
98.113969
 21
119.638290
 31
0.0
  0
LINE
  5
15c
100
AcDbEntity
  8
decoupe
 62
7
100
AcDbLine
 10
98.113969
 20
119.638290
 30
0.0
 11
98.113969
 21
119.638290
 31
0.0
  0
SPLINE
  5
15d
100
AcDbEntity
  8
decoupe
 62
7
100
AcDbSpline
 70
0
 71
3
 72
13
 73
9
 74
7
 40
0.000000
 40
0.000000
 40
0.000000
 40
0.000000
 40
7.977950
 40
13.760592
 40
16.096732
 40
16.561065
 40
17.755768
 40
19.949530
 40
19.949530
 40
19.949530
 40
19.949530
 10
90.583111
 20
119.914473
 30
0.0
 10
90.463478
 20
117.187008
 30
0.0
 10
90.257130
 20
112.482600
 30
0.0
 10
91.201245
 20
107.691085
 30
0.0
 10
90.006646
 20
104.070814
 30
0.0
 10
91.301781
 20
103.487173
 30
0.0
 10
92.594407
 20
103.554148
 30
0.0
 10
93.721843
 20
103.547026
 30
0.0
 10
94.451768
 20
103.542414
 30
0.0
 11
90.583111
 21
119.914473
 31
0.0
 11
90.564859
 21
111.936544
 31
0.0
 11
90.588575
 21
106.153951
 31
0.0
 11
90.649112
 21
103.818594
 31
0.0
 11
91.066485
 21
103.615115
 31
0.0
 11
92.258050
 21
103.528574
 31
0.0
 11
94.451768
 21
103.542414
 31
0.0
  0
LINE
  5
15e
100
AcDbEntity
  8
decoupe
 62
7
100
AcDbLine
 10
103.257844
 20
136.014201
 30
0.0
 11
100.676781
 21
135.933008
 31
0.0
  0
LINE
  5
15f
100
AcDbEntity
  8
decoupe
 62
7
100
AcDbLine
 10
100.676781
 20
135.933008
 30
0.0
 11
100.676781
 21
133.171193
 31
0.0
  0
LINE
  5
160
100
AcDbEntity
  8
decoupe
 62
7
100
AcDbLine
 10
100.676781
 20
133.171193
 30
0.0
 11
100.676781
 21
130.409374
 31
0.0
  0
LINE
  5
161
100
AcDbEntity
  8
decoupe
 62
7
100
AcDbLine
 10
100.676781
 20
130.409374
 30
0.0
 11
103.831413
 21
130.243775
 31
0.0
  0
SPLINE
  5
162
100
AcDbEntity
  8
decoupe
 62
7
100
AcDbSpline
 70
0
 71
3
 72
31
 73
27
 74
25
 40
0.000000
 40
0.000000
 40
0.000000
 40
0.000000
 40
0.299191
 40
0.968010
 40
1.872524
 40
3.325712
 40
5.441792
 40
7.768418
 40
10.455424
 40
12.152944
 40
13.441147
 40
14.253609
 40
14.864027
 40
15.141821
 40
15.353762
 40
15.794217
 40
16.370418
 40
20.445233
 40
24.510716
 40
28.664437
 40
30.551127
 40
32.764758
 40
35.173519
 40
37.438795
 40
40.524820
 40
43.948478
 40
43.948478
 40
43.948478
 40
43.948478
 10
119.232491
 20
103.629672
 30
0.0
 10
119.230501
 20
103.729816
 30
0.0
 10
119.224065
 20
104.053822
 30
0.0
 10
118.996172
 20
104.646139
 30
0.0
 10
118.625095
 20
105.578999
 30
0.0
 10
118.175668
 20
107.005460
 30
0.0
 10
117.723872
 20
108.917907
 30
0.0
 10
117.267402
 20
111.251935
 30
0.0
 10
116.885407
 20
113.451814
 30
0.0
 10
116.417194
 20
115.298145
 30
0.0
 10
115.830662
 20
116.421422
 30
0.0
 10
115.310081
 20
117.180235
 30
0.0
 10
115.077400
 20
117.662770
 30
0.0
 10
114.816425
 20
117.998388
 30
0.0
 10
115.019734
 20
118.279213
 30
0.0
 10
115.227533
 20
118.611352
 30
0.0
 10
116.291952
 20
119.957943
 30
0.0
 10
117.661706
 20
122.590220
 30
0.0
 10
118.038035
 20
126.747754
 30
0.0
 10
117.256811
 20
130.131961
 30
0.0
 10
115.664440
 20
132.417724
 30
0.0
 10
113.980416
 20
133.806188
 30
0.0
 10
112.011356
 20
135.030984
 30
0.0
 10
109.480856
 20
135.675469
 30
0.0
 10
106.572021
 20
136.014500
 30
0.0
 10
104.400119
 20
136.014304
 30
0.0
 10
103.257844
 20
136.014201
 30
0.0
 11
119.232491
 21
103.629672
 31
0.0
 11
119.215883
 21
103.928402
 31
0.0
 11
119.024600
 21
104.569283
 31
0.0
 11
118.700053
 21
105.413568
 31
0.0
 11
118.256359
 21
106.797364
 31
0.0
 11
117.752711
 21
108.852633
 31
0.0
 11
117.298145
 21
111.134421
 31
0.0
 11
116.786901
 21
113.772343
 31
0.0
 11
116.314031
 21
115.402670
 31
0.0
 11
115.727497
 21
116.549599
 31
0.0
 11
115.296894
 21
117.238566
 31
0.0
 11
114.989773
 21
117.766095
 31
0.0
 11
114.872623
 21
118.017979
 31
0.0
 11
114.966385
 21
118.208051
 31
0.0
 11
115.212192
 21
118.573536
 31
0.0
 11
115.556829
 21
119.035308
 31
0.0
 11
117.405075
 21
122.666851
 31
0.0
 11
117.818327
 21
126.711277
 31
0.0
 11
116.751323
 21
130.725613
 31
0.0
 11
115.670391
 21
132.271960
 31
0.0
 11
114.002105
 21
133.726944
 31
0.0
 11
111.920421
 21
134.938852
 31
0.0
 11
109.743318
 21
135.564714
 31
0.0
 11
106.680800
 21
135.944887
 31
0.0
 11
103.257844
 21
136.014201
 31
0.0
  0
LINE
  5
163
100
AcDbEntity
  8
decoupe
 62
7
100
AcDbLine
 10
103.544630
 20
121.363895
 30
0.0
 11
100.676781
 21
121.295380
 31
0.0
  0
LINE
  5
164
100
AcDbEntity
  8
decoupe
 62
7
100
AcDbLine
 10
100.676781
 20
121.295380
 30
0.0
 11
100.676781
 21
118.395474
 31
0.0
  0
LINE
  5
165
100
AcDbEntity
  8
decoupe
 62
7
100
AcDbLine
 10
100.676781
 20
118.395474
 30
0.0
 11
100.676781
 21
115.495564
 31
0.0
  0
LINE
  5
166
100
AcDbEntity
  8
decoupe
 62
7
100
AcDbLine
 10
100.676781
 20
115.495564
 30
0.0
 11
103.885698
 21
115.331178
 31
0.0
  0
SPLINE
  5
167
100
AcDbEntity
  8
decoupe
 62
7
100
AcDbSpline
 70
0
 71
3
 72
16
 73
12
 74
10
 40
0.000000
 40
0.000000
 40
0.000000
 40
0.000000
 40
2.745318
 40
4.359835
 40
5.621326
 40
7.975904
 40
10.197764
 40
12.446474
 40
13.747800
 40
15.189387
 40
17.847601
 40
17.847601
 40
17.847601
 40
17.847601
 10
103.831413
 20
130.243775
 30
0.0
 10
104.739915
 20
130.193906
 30
0.0
 10
106.182706
 20
130.114708
 30
0.0
 10
108.075228
 20
129.742094
 30
0.0
 10
109.409822
 20
128.541933
 30
0.0
 10
110.262975
 20
126.710407
 30
0.0
 10
110.144639
 20
124.320470
 30
0.0
 10
108.964034
 20
122.705451
 30
0.0
 10
107.606730
 20
121.685216
 30
0.0
 10
105.788192
 20
121.389780
 30
0.0
 10
104.427118
 20
121.374077
 30
0.0
 10
103.544630
 20
121.363895
 30
0.0
 11
103.831413
 21
130.243775
 31
0.0
 11
106.566843
 21
130.010982
 31
0.0
 11
108.120199
 21
129.570809
 31
0.0
 11
109.082944
 21
128.755654
 31
0.0
 11
110.084328
 21
126.624628
 31
0.0
 11
109.938382
 21
124.407566
 31
0.0
 11
108.674287
 21
122.547792
 31
0.0
 11
107.604875
 21
121.806302
 31
0.0
 11
106.200213
 21
121.482113
 31
0.0
 11
103.544630
 21
121.363895
 31
0.0
  0
LINE
  5
168
100
AcDbEntity
  8
decoupe
 62
7
100
AcDbLine
 10
119.232491
 20
103.629672
 30
0.0
 11
119.232491
 21
103.629672
 31
0.0
  0
LINE
  5
169
100
AcDbEntity
  8
decoupe
 62
7
100
AcDbLine
 10
149.482604
 20
116.167439
 30
0.0
 11
146.229146
 21
123.968632
 31
0.0
  0
SPLINE
  5
16a
100
AcDbEntity
  8
decoupe
 62
7
100
AcDbSpline
 70
0
 71
3
 72
19
 73
15
 74
13
 40
0.000000
 40
0.000000
 40
0.000000
 40
0.000000
 40
3.428445
 40
5.545231
 40
8.662226
 40
11.666373
 40
13.907648
 40
15.307209
 40
16.023461
 40
17.125147
 40
19.571993
 40
21.364291
 40
22.683805
 40
23.248015
 40
23.248015
 40
23.248015
 40
23.248015
 10
103.885698
 20
115.331178
 30
0.0
 10
105.060234
 20
115.346602
 30
0.0
 10
106.959952
 20
115.371550
 30
0.0
 10
109.423639
 20
113.430193
 30
0.0
 10
109.625400
 20
110.513325
 30
0.0
 10
110.170949
 20
107.820681
 30
0.0
 10
110.734933
 20
105.673612
 30
0.0
 10
111.285529
 20
104.311762
 30
0.0
 10
112.099081
 20
103.535255
 30
0.0
 10
113.597248
 20
103.500243
 30
0.0
 10
115.336554
 20
103.468058
 30
0.0
 10
117.197519
 20
103.503623
 30
0.0
 10
118.424589
 20
103.510390
 30
0.0
 10
119.046282
 20
103.602179
 30
0.0
 10
119.232491
 20
103.629672
 30
0.0
 11
103.885698
 21
115.331178
 31
0.0
 11
107.286008
 21
114.892852
 31
0.0
 11
108.916633
 21
113.543095
 31
0.0
 11
109.692838
 21
110.524293
 31
0.0
 11
110.254501
 21
107.573118
 31
0.0
 11
110.863622
 21
105.416202
 31
0.0
 11
111.488974
 21
104.164122
 31
0.0
 11
112.029401
 21
103.694064
 31
0.0
 11
113.115945
 21
103.512033
 31
0.0
 11
115.562603
 21
103.481660
 31
0.0
 11
117.354786
 21
103.501943
 31
0.0
 11
118.673228
 21
103.555118
 31
0.0
 11
119.232491
 21
103.629672
 31
0.0
  0
LINE
  5
16b
100
AcDbEntity
  8
decoupe
 62
7
100
AcDbLine
 10
142.371188
 20
133.812235
 30
0.0
 11
141.595630
 21
135.656602
 31
0.0
  0
LINE
  5
16c
100
AcDbEntity
  8
decoupe
 62
7
100
AcDbLine
 10
141.595630
 20
135.656602
 30
0.0
 11
138.348971
 21
135.735424
 31
0.0
  0
SPLINE
  5
16d
100
AcDbEntity
  8
decoupe
 62
7
100
AcDbSpline
 70
0
 71
3
 72
10
 73
6
 74
4
 40
0.000000
 40
0.000000
 40
0.000000
 40
0.000000
 40
4.035128
 40
8.111901
 40
10.572684
 40
10.572684
 40
10.572684
 40
10.572684
 10
146.229146
 20
123.968632
 30
0.0
 10
145.741845
 20
125.222293
 30
0.0
 10
144.762213
 20
127.742556
 30
0.0
 10
143.485820
 20
131.027570
 30
0.0
 10
142.676008
 20
133.050710
 30
0.0
 10
142.371188
 20
133.812235
 30
0.0
 11
146.229146
 21
123.968632
 31
0.0
 11
144.767321
 21
127.729659
 31
0.0
 11
143.282733
 21
131.526510
 31
0.0
 11
142.371188
 21
133.812235
 31
0.0
  0
LINE
  5
16e
100
AcDbEntity
  8
decoupe
 62
7
100
AcDbLine
 10
134.853714
 20
135.573914
 30
0.0
 11
147.138650
 21
103.617759
 31
0.0
  0
SPLINE
  5
16f
100
AcDbEntity
  8
decoupe
 62
7
100
AcDbSpline
 70
0
 71
3
 72
13
 73
9
 74
7
 40
0.000000
 40
0.000000
 40
0.000000
 40
0.000000
 40
0.441262
 40
0.869298
 40
1.280021
 40
2.366128
 40
3.145093
 40
3.508516
 40
3.508516
 40
3.508516
 40
3.508516
 10
138.348971
 20
135.735424
 30
0.0
 10
138.201912
 20
135.738571
 30
0.0
 10
137.912202
 20
135.744769
 30
0.0
 10
137.485584
 20
135.748101
 30
0.0
 10
136.843665
 20
135.748647
 30
0.0
 10
136.087756
 20
135.719814
 30
0.0
 10
135.338850
 20
135.707274
 30
0.0
 10
134.970800
 20
135.606100
 30
0.0
 10
134.853714
 20
135.573914
 30
0.0
 11
138.348971
 21
135.735424
 31
0.0
 11
137.907789
 21
135.743849
 31
0.0
 11
137.479771
 21
135.747639
 31
0.0
 11
137.069048
 21
135.746995
 31
0.0
 11
135.983267
 21
135.720377
 31
0.0
 11
135.206577
 21
135.660883
 31
0.0
 11
134.853714
 21
135.573914
 31
0.0
  0
SPLINE
  5
170
100
AcDbEntity
  8
decoupe
 62
7
100
AcDbSpline
 70
0
 71
3
 72
10
 73
6
 74
4
 40
0.000000
 40
0.000000
 40
0.000000
 40
0.000000
 40
2.140740
 40
4.268879
 40
6.244757
 40
6.244757
 40
6.244757
 40
6.244757
 10
147.138650
 20
103.617759
 30
0.0
 10
147.852214
 20
103.621925
 30
0.0
 10
149.275144
 20
103.630233
 30
0.0
 10
151.356710
 20
103.646751
 30
0.0
 10
152.724698
 20
103.636592
 30
0.0
 10
153.383316
 20
103.631701
 30
0.0
 11
147.138650
 21
103.617759
 31
0.0
 11
149.279348
 21
103.631008
 31
0.0
 11
151.407461
 21
103.641503
 31
0.0
 11
153.383316
 21
103.631701
 31
0.0
  0
LINE
  5
171
100
AcDbEntity
  8
decoupe
 62
7
100
AcDbLine
 10
151.532937
 20
118.340175
 30
0.0
 11
150.684066
 21
116.214136
 31
0.0
  0
LINE
  5
172
100
AcDbEntity
  8
decoupe
 62
7
100
AcDbLine
 10
150.684066
 20
116.214136
 30
0.0
 11
149.482604
 21
116.167439
 31
0.0
  0
SPLINE
  5
173
100
AcDbEntity
  8
decoupe
 62
7
100
AcDbSpline
 70
0
 71
3
 72
28
 73
24
 74
22
 40
0.000000
 40
0.000000
 40
0.000000
 40
0.000000
 40
1.272911
 40
4.371164
 40
8.498997
 40
12.610931
 40
15.740370
 40
17.209779
 40
22.548404
 40
29.836809
 40
33.724165
 40
34.114172
 40
35.029487
 40
37.209423
 40
39.118977
 40
40.279447
 40
40.827074
 40
42.122927
 40
45.087450
 40
49.080408
 40
53.326271
 40
56.953387
 40
59.176427
 40
59.176427
 40
59.176427
 40
59.176427
 10
153.383316
 20
103.631701
 30
0.0
 10
153.559557
 20
104.018033
 30
0.0
 10
154.164765
 20
105.344694
 30
0.0
 10
154.944697
 20
108.076882
 30
0.0
 10
156.240100
 20
111.626533
 30
0.0
 10
157.575733
 20
115.172851
 30
0.0
 10
158.597621
 20
117.891970
 30
0.0
 10
159.788843
 20
120.979015
 30
0.0
 10
161.693996
 20
125.339640
 30
0.0
 10
162.696658
 20
130.570407
 30
0.0
 10
165.521598
 20
134.104725
 30
0.0
 10
164.802086
 20
135.842626
 30
0.0
 10
163.409245
 20
135.692704
 30
0.0
 10
161.887166
 20
135.836290
 30
0.0
 10
160.090847
 20
135.765121
 30
0.0
 10
158.904770
 20
135.727809
 30
0.0
 10
157.893185
 20
135.398465
 30
0.0
 10
157.582262
 20
133.592147
 30
0.0
 10
156.357890
 20
131.258998
 30
0.0
 10
155.121791
 20
127.671262
 30
0.0
 10
153.699613
 20
123.999294
 30
0.0
 10
152.509932
 20
120.847173
 30
0.0
 10
151.801963
 20
119.030503
 30
0.0
 10
151.532937
 20
118.340175
 30
0.0
 11
153.383316
 21
103.631701
 31
0.0
 11
153.894732
 21
104.797358
 31
0.0
 11
154.880085
 21
107.734747
 31
0.0
 11
156.248585
 21
111.629128
 31
0.0
 11
157.690769
 21
115.479857
 31
0.0
 11
158.797813
 21
118.406945
 31
0.0
 11
159.329879
 21
119.776641
 31
0.0
 11
161.262466
 21
124.753188
 31
0.0
 11
163.775536
 21
131.594630
 31
0.0
 11
165.023382
 21
135.276263
 31
0.0
 11
164.844452
 21
135.622802
 31
0.0
 11
163.940489
 21
135.766512
 31
0.0
 11
161.760738
 21
135.794956
 31
0.0
 11
159.851527
 21
135.758817
 31
0.0
 11
158.696833
 21
135.643180
 31
0.0
 11
158.189414
 21
135.437217
 31
0.0
 11
157.657188
 21
134.255705
 31
0.0
 11
156.558477
 21
131.502301
 31
0.0
 11
155.131270
 21
127.773120
 31
0.0
 11
153.630073
 21
123.801501
 31
0.0
 11
152.337328
 21
120.412580
 31
0.0
 11
151.532937
 21
118.340175
 31
0.0
  0
LINE
  5
174
100
AcDbEntity
  8
decoupe
 62
7
100
AcDbLine
 10
72.321595
 20
136.014201
 30
0.0
 11
69.740534
 21
135.933008
 31
0.0
  0
LINE
  5
175
100
AcDbEntity
  8
decoupe
 62
7
100
AcDbLine
 10
69.740534
 20
135.933008
 30
0.0
 11
69.740534
 21
133.033101
 31
0.0
  0
LINE
  5
176
100
AcDbEntity
  8
decoupe
 62
7
100
AcDbLine
 10
69.740534
 20
133.033101
 30
0.0
 11
69.740534
 21
130.133195
 31
0.0
  0
LINE
  5
177
100
AcDbEntity
  8
decoupe
 62
7
100
AcDbLine
 10
69.740534
 20
130.133195
 30
0.0
 11
73.038558
 21
129.980295
 31
0.0
  0
SPLINE
  5
178
100
AcDbEntity
  8
decoupe
 62
7
100
AcDbSpline
 70
0
 71
3
 72
19
 73
15
 74
13
 40
0.000000
 40
0.000000
 40
0.000000
 40
0.000000
 40
3.511899
 40
6.838569
 40
9.837669
 40
12.062185
 40
14.588228
 40
16.835117
 40
19.551059
 40
21.812316
 40
23.845069
 40
27.462337
 40
31.445832
 40
36.540309
 40
36.540309
 40
36.540309
 40
36.540309
 10
77.230836
 20
114.827126
 30
0.0
 10
78.382672
 20
115.071750
 30
0.0
 10
80.625591
 20
115.548095
 30
0.0
 10
83.497537
 20
117.223607
 30
0.0
 10
85.540859
 20
119.313149
 30
0.0
 10
86.470291
 20
121.760199
 30
0.0
 10
86.965537
 20
124.044318
 30
0.0
 10
87.025803
 20
126.561145
 30
0.0
 10
86.506869
 20
128.927786
 30
0.0
 10
85.653359
 20
131.128510
 30
0.0
 10
83.965435
 20
133.198001
 30
0.0
 10
81.222842
 20
134.999717
 30
0.0
 10
77.058311
 20
136.050443
 30
0.0
 10
74.024271
 20
136.027228
 30
0.0
 10
72.321595
 20
136.014201
 30
0.0
 11
77.230836
 21
114.827126
 31
0.0
 11
80.621331
 21
115.742539
 31
0.0
 11
83.500520
 21
117.408975
 31
0.0
 11
85.520982
 21
119.625353
 31
0.0
 11
86.382924
 21
121.676092
 31
0.0
 11
86.901434
 21
124.148346
 31
0.0
 11
86.940768
 21
126.394890
 31
0.0
 11
86.400220
 21
129.056496
 31
0.0
 11
85.516461
 21
131.137903
 31
0.0
 11
84.251332
 21
132.728982
 31
0.0
 11
81.252485
 21
134.751740
 31
0.0
 11
77.411951
 21
135.809349
 31
0.0
 11
72.321595
 21
136.014201
 31
0.0
  0
LINE
  5
179
100
AcDbEntity
  8
decoupe
 62
7
100
AcDbLine
 10
73.091026
 20
120.881106
 30
0.0
 11
69.740534
 21
120.743018
 31
0.0
  0
LINE
  5
17a
100
AcDbEntity
  8
decoupe
 62
7
100
AcDbLine
 10
69.740534
 20
120.743018
 30
0.0
 11
69.657832
 21
118.000859
 31
0.0
  0
SPLINE
  5
17b
100
AcDbEntity
  8
decoupe
 62
7
100
AcDbSpline
 70
0
 71
3
 72
16
 73
12
 74
10
 40
0.000000
 40
0.000000
 40
0.000000
 40
0.000000
 40
3.066030
 40
4.880884
 40
6.586441
 40
8.866408
 40
11.029447
 40
13.358361
 40
14.190010
 40
15.433760
 40
17.606952
 40
17.606952
 40
17.606952
 40
17.606952
 10
73.038558
 20
129.980295
 30
0.0
 10
74.054259
 20
129.944533
 30
0.0
 10
75.671177
 20
129.887604
 30
0.0
 10
77.871535
 20
129.193456
 30
0.0
 10
78.959202
 20
127.489473
 30
0.0
 10
79.526784
 20
125.463457
 30
0.0
 10
78.916574
 20
123.189399
 30
0.0
 10
77.696550
 20
121.796584
 30
0.0
 10
76.374773
 20
121.115926
 30
0.0
 10
74.945656
 20
120.969828
 30
0.0
 10
73.812023
 20
120.915597
 30
0.0
 10
73.091026
 20
120.881106
 30
0.0
 11
73.038558
 21
129.980295
 31
0.0
 11
76.091050
 21
129.692494
 31
0.0
 11
77.770930
 21
129.005688
 31
0.0
 11
78.782003
 21
127.632133
 31
0.0
 11
79.324149
 21
125.417561
 31
0.0
 11
78.786674
 21
123.322362
 31
0.0
 11
77.231683
 21
121.588626
 31
0.0
 11
76.486362
 21
121.219657
 31
0.0
 11
75.260382
 21
121.010172
 31
0.0
 11
73.091026
 21
120.881106
 31
0.0
  0
LINE
  5
17c
100
AcDbEntity
  8
decoupe
 62
7
100
AcDbLine
 10
77.230836
 20
114.827126
 30
0.0
 11
77.230836
 21
114.827126
 31
0.0
  0
LINE
  5
17d
100
AcDbEntity
  8
decoupe
 62
7
100
AcDbLine
 10
21.319544
 20
171.146174
 30
0.0
 11
21.319544
 21
187.302803
 31
0.0
  0
LINE
  5
17e
100
AcDbEntity
  8
decoupe
 62
7
100
AcDbLine
 10
21.319544
 20
187.302803
 30
0.0
 11
17.591342
 21
187.302803
 31
0.0
  0
LINE
  5
17f
100
AcDbEntity
  8
decoupe
 62
7
100
AcDbLine
 10
17.591342
 20
187.302803
 30
0.0
 11
13.863141
 21
187.302803
 31
0.0
  0
LINE
  5
180
100
AcDbEntity
  8
decoupe
 62
7
100
AcDbLine
 10
13.863141
 20
187.302803
 30
0.0
 11
13.788698
 21
171.422357
 31
0.0
  0
SPLINE
  5
181
100
AcDbEntity
  8
decoupe
 62
7
100
AcDbSpline
 70
0
 71
3
 72
13
 73
9
 74
7
 40
0.000000
 40
0.000000
 40
0.000000
 40
0.000000
 40
1.431403
 40
2.547865
 40
3.110850
 40
4.464069
 40
7.326483
 40
10.670375
 40
10.670375
 40
10.670375
 40
10.670375
 10
69.657832
 20
118.000859
 30
0.0
 10
69.643272
 20
117.518454
 30
0.0
 10
69.617355
 20
116.659783
 30
0.0
 10
69.670623
 20
115.673188
 30
0.0
 10
69.634805
 20
114.530507
 30
0.0
 10
71.785356
 20
114.623878
 30
0.0
 10
73.967192
 20
114.462230
 30
0.0
 10
76.088109
 20
114.699362
 30
0.0
 10
77.230836
 20
114.827126
 30
0.0
 11
69.657832
 21
118.000859
 31
0.0
 11
69.636101
 21
116.569621
 31
0.0
 11
69.658626
 21
115.453386
 31
0.0
 11
69.720531
 21
114.893816
 31
0.0
 11
71.036047
 21
114.576613
 31
0.0
 11
73.898349
 21
114.551197
 31
0.0
 11
77.230836
 21
114.827126
 31
0.0
  0
LINE
  5
182
100
AcDbEntity
  8
decoupe
 62
7
100
AcDbLine
 10
17.657343
 20
154.912207
 30
0.0
 11
21.319544
 21
154.989544
 31
0.0
  0
LINE
  5
183
100
AcDbEntity
  8
decoupe
 62
7
100
AcDbLine
 10
21.319544
 20
154.989544
 30
0.0
 11
21.319544
 21
171.146174
 31
0.0
  0
LINE
  5
184
100
AcDbEntity
  8
decoupe
 62
7
100
AcDbLine
 10
21.319544
 20
171.146174
 30
0.0
 11
21.319544
 21
171.146174
 31
0.0
  0
LINE
  5
185
100
AcDbEntity
  8
decoupe
 62
7
100
AcDbLine
 10
50.840118
 20
171.146174
 30
0.0
 11
50.840118
 21
187.302803
 31
0.0
  0
LINE
  5
186
100
AcDbEntity
  8
decoupe
 62
7
100
AcDbLine
 10
50.840118
 20
187.302803
 30
0.0
 11
47.255309
 21
187.302803
 31
0.0
  0
LINE
  5
187
100
AcDbEntity
  8
decoupe
 62
7
100
AcDbLine
 10
47.255309
 20
187.302803
 30
0.0
 11
43.670499
 21
187.302803
 31
0.0
  0
LINE
  5
188
100
AcDbEntity
  8
decoupe
 62
7
100
AcDbLine
 10
43.670499
 20
187.302803
 30
0.0
 11
43.596058
 21
171.422357
 31
0.0
  0
SPLINE
  5
189
100
AcDbEntity
  8
decoupe
 62
7
100
AcDbSpline
 70
0
 71
3
 72
13
 73
9
 74
7
 40
0.000000
 40
0.000000
 40
0.000000
 40
0.000000
 40
8.047506
 40
13.879758
 40
16.234817
 40
16.699144
 40
17.893843
 40
20.087606
 40
20.087606
 40
20.087606
 40
20.087606
 10
13.788698
 20
171.422357
 30
0.0
 10
13.667864
 20
168.671006
 30
0.0
 10
13.459458
 20
163.925675
 30
0.0
 10
14.413484
 20
159.093906
 30
0.0
 10
13.206688
 20
155.443741
 30
0.0
 10
14.507184
 20
154.856857
 30
0.0
 10
15.800097
 20
154.924014
 30
0.0
 10
16.927463
 20
154.916847
 30
0.0
 10
17.657343
 20
154.912207
 30
0.0
 11
13.788698
 21
171.422357
 31
0.0
 11
13.770447
 21
163.374871
 31
0.0
 11
13.794158
 21
157.542668
 31
0.0
 11
13.854696
 21
155.188387
 31
0.0
 11
14.272063
 21
154.984907
 31
0.0
 11
15.463623
 21
154.898366
 31
0.0
 11
17.657343
 21
154.912207
 31
0.0
  0
LINE
  5
18a
100
AcDbEntity
  8
decoupe
 62
7
100
AcDbLine
 10
47.321411
 20
154.911956
 30
0.0
 11
50.840118
 21
154.989544
 31
0.0
  0
LINE
  5
18b
100
AcDbEntity
  8
decoupe
 62
7
100
AcDbLine
 10
50.840118
 20
154.989544
 30
0.0
 11
50.840118
 21
171.146174
 31
0.0
  0
LINE
  5
18c
100
AcDbEntity
  8
decoupe
 62
7
100
AcDbLine
 10
50.840118
 20
171.146174
 30
0.0
 11
50.840118
 21
171.146174
 31
0.0
  0
SPLINE
  5
18d
100
AcDbEntity
  8
decoupe
 62
7
100
AcDbSpline
 70
0
 71
3
 72
13
 73
9
 74
7
 40
0.000000
 40
0.000000
 40
0.000000
 40
0.000000
 40
8.047541
 40
13.879883
 40
16.235069
 40
16.688832
 40
17.840229
 40
19.945718
 40
19.945718
 40
19.945718
 40
19.945718
 10
43.596058
 20
171.422357
 30
0.0
 10
43.475549
 20
168.672257
 30
0.0
 10
43.267704
 20
163.929060
 30
0.0
 10
44.219066
 20
159.086590
 30
0.0
 10
43.017311
 20
155.454808
 30
0.0
 10
44.290110
 20
154.858208
 30
0.0
 10
45.538613
 20
154.922648
 30
0.0
 10
46.621411
 20
154.916154
 30
0.0
 10
47.321411
 20
154.911956
 30
0.0
 11
43.596058
 21
171.422357
 31
0.0
 11
43.577824
 21
163.374836
 31
0.0
 11
43.601576
 21
157.542543
 31
0.0
 11
43.662154
 21
155.188136
 31
0.0
 11
44.067835
 21
154.984853
 31
0.0
 11
45.215966
 21
154.898198
 31
0.0
 11
47.321411
 21
154.911956
 31
0.0
  0
LINE
  5
18e
100
AcDbEntity
  8
decoupe
 62
7
100
AcDbLine
 10
56.414170
 20
187.386350
 30
0.0
 11
53.689716
 21
187.302803
 31
0.0
  0
LINE
  5
18f
100
AcDbEntity
  8
decoupe
 62
7
100
AcDbLine
 10
53.689716
 20
187.302803
 30
0.0
 11
53.689716
 21
184.540985
 31
0.0
  0
LINE
  5
190
100
AcDbEntity
  8
decoupe
 62
7
100
AcDbLine
 10
53.689716
 20
184.540985
 30
0.0
 11
53.689716
 21
181.779170
 31
0.0
  0
LINE
  5
191
100
AcDbEntity
  8
decoupe
 62
7
100
AcDbLine
 10
53.689716
 20
181.779170
 30
0.0
 11
56.844348
 21
181.622381
 31
0.0
  0
SPLINE
  5
192
100
AcDbEntity
  8
decoupe
 62
7
100
AcDbSpline
 70
0
 71
3
 72
28
 73
24
 74
22
 40
0.000000
 40
0.000000
 40
0.000000
 40
0.000000
 40
0.202952
 40
0.575354
 40
1.059646
 40
2.714780
 40
4.939385
 40
8.054675
 40
10.781419
 40
12.674125
 40
14.308557
 40
14.922814
 40
15.530836
 40
16.809954
 40
19.247200
 40
21.539861
 40
24.209764
 40
25.920045
 40
27.198020
 40
28.577218
 40
32.757446
 40
37.434023
 40
43.593674
 40
43.593674
 40
43.593674
 40
43.593674
 10
72.271486
 20
155.024560
 30
0.0
 10
72.286051
 20
155.091620
 30
0.0
 10
72.327342
 20
155.281731
 30
0.0
 10
72.193949
 20
155.626075
 30
0.0
 10
71.841504
 20
156.374477
 30
0.0
 10
71.242470
 20
157.713671
 30
0.0
 10
70.704832
 20
159.987881
 30
0.0
 10
70.224397
 20
162.634721
 30
0.0
 10
69.793037
 20
165.169680
 30
0.0
 10
69.185579
 20
167.195062
 30
0.0
 10
68.534313
 20
168.371393
 30
0.0
 10
67.918745
 20
169.195604
 30
0.0
 10
68.253218
 20
170.047388
 30
0.0
 10
69.115561
 20
171.156277
 30
0.0
 10
70.138920
 20
172.924175
 30
0.0
 10
70.752434
 20
175.340883
 30
0.0
 10
70.719713
 20
177.578472
 30
0.0
 10
70.599597
 20
179.461541
 30
0.0
 10
70.265512
 20
180.889374
 30
0.0
 10
69.285534
 20
182.953753
 30
0.0
 10
66.994463
 20
185.670949
 30
0.0
 10
62.090579
 20
187.365493
 30
0.0
 10
58.471416
 20
187.378791
 30
0.0
 10
56.414170
 20
187.386350
 30
0.0
 11
72.271486
 21
155.024560
 31
0.0
 11
72.301031
 21
155.225350
 31
0.0
 11
72.205699
 21
155.585342
 31
0.0
 11
72.006124
 21
156.026601
 31
0.0
 11
71.363292
 21
157.551801
 31
0.0
 11
70.789325
 21
159.701087
 31
0.0
 11
70.207550
 21
162.761572
 31
0.0
 11
69.679947
 21
165.436785
 31
0.0
 11
69.099426
 21
167.238266
 31
0.0
 11
68.304715
 21
168.666482
 31
0.0
 11
68.025196
 21
169.213457
 31
0.0
 11
68.176353
 21
169.802390
 31
0.0
 11
68.871798
 21
170.875935
 31
0.0
 11
70.053787
 21
173.007383
 31
0.0
 11
70.628147
 21
175.226933
 31
0.0
 11
70.688440
 21
177.896156
 31
0.0
 11
70.536323
 21
179.599659
 31
0.0
 11
70.232177
 21
180.840914
 31
0.0
 11
69.659452
 21
182.095575
 31
0.0
 11
66.902849
 21
185.238096
 31
0.0
 11
62.559927
 21
186.972859
 31
0.0
 11
56.414170
 21
187.386350
 31
0.0
  0
LINE
  5
193
100
AcDbEntity
  8
decoupe
 62
7
100
AcDbLine
 10
56.988179
 20
172.803264
 30
0.0
 11
53.689716
 21
172.665173
 31
0.0
  0
LINE
  5
194
100
AcDbEntity
  8
decoupe
 62
7
100
AcDbLine
 10
53.689716
 20
172.665173
 30
0.0
 11
53.689716
 21
169.765266
 31
0.0
  0
LINE
  5
195
100
AcDbEntity
  8
decoupe
 62
7
100
AcDbLine
 10
53.689716
 20
169.765266
 30
0.0
 11
53.689716
 21
166.865359
 31
0.0
  0
LINE
  5
196
100
AcDbEntity
  8
decoupe
 62
7
100
AcDbLine
 10
53.689716
 20
166.865359
 30
0.0
 11
56.874207
 21
166.702102
 31
0.0
  0
SPLINE
  5
197
100
AcDbEntity
  8
decoupe
 62
7
100
AcDbSpline
 70
0
 71
3
 72
16
 73
12
 74
10
 40
0.000000
 40
0.000000
 40
0.000000
 40
0.000000
 40
3.241538
 40
5.142440
 40
7.108021
 40
9.034550
 40
10.980555
 40
12.963028
 40
13.888683
 40
15.132260
 40
17.324748
 40
17.324748
 40
17.324748
 40
17.324748
 10
56.844348
 20
181.622381
 30
0.0
 10
57.922482
 20
181.593437
 30
0.0
 10
59.632855
 20
181.547519
 30
0.0
 10
61.964955
 20
180.655264
 30
0.0
 10
62.913849
 20
178.849256
 30
0.0
 10
63.287539
 20
176.904355
 30
0.0
 10
62.670803
 20
174.968665
 30
0.0
 10
61.558443
 20
173.723914
 30
0.0
 10
60.319245
 20
173.063642
 30
0.0
 10
58.857223
 20
172.883904
 30
0.0
 10
57.716227
 20
172.834676
 30
0.0
 10
56.988179
 20
172.803264
 30
0.0
 11
56.844348
 21
181.622381
 31
0.0
 11
60.069544
 21
181.297302
 31
0.0
 11
61.790192
 21
180.489343
 31
0.0
 11
62.821188
 21
178.815856
 31
0.0
 11
63.123990
 21
176.913273
 31
0.0
 11
62.555283
 21
175.052222
 31
0.0
 11
61.222580
 21
173.584537
 31
0.0
 11
60.399636
 21
173.160745
 31
0.0
 11
59.176700
 21
172.935105
 31
0.0
 11
56.988179
 21
172.803264
 31
0.0
  0
LINE
  5
198
100
AcDbEntity
  8
decoupe
 62
7
100
AcDbLine
 10
72.271486
 20
155.024560
 30
0.0
 11
72.271486
 21
155.024560
 31
0.0
  0
LINE
  5
199
100
AcDbEntity
  8
decoupe
 62
7
100
AcDbLine
 10
90.111371
 20
157.889454
 30
0.0
 11
90.111371
 21
160.743330
 31
0.0
  0
LINE
  5
19a
100
AcDbEntity
  8
decoupe
 62
7
100
AcDbLine
 10
90.111371
 20
160.743330
 30
0.0
 11
88.913826
 21
161.127756
 31
0.0
  0
SPLINE
  5
19b
100
AcDbEntity
  8
decoupe
 62
7
100
AcDbSpline
 70
0
 71
3
 72
19
 73
15
 74
13
 40
0.000000
 40
0.000000
 40
0.000000
 40
0.000000
 40
3.404066
 40
5.555345
 40
8.975085
 40
12.131786
 40
14.005241
 40
15.228743
 40
15.980855
 40
17.078821
 40
19.550663
 40
21.346575
 40
22.675835
 40
23.254830
 40
23.254830
 40
23.254830
 40
23.254830
 10
56.874207
 20
166.702102
 30
0.0
 10
58.051052
 20
166.728417
 30
0.0
 10
59.971632
 20
166.771361
 30
0.0
 10
62.410770
 20
164.633654
 30
0.0
 10
62.629035
 20
161.568437
 30
0.0
 10
63.214880
 20
158.858725
 30
0.0
 10
63.703927
 20
156.806994
 30
0.0
 10
64.329324
 20
155.685210
 30
0.0
 10
65.072153
 20
154.911681
 30
0.0
 10
66.598754
 20
154.863805
 30
0.0
 10
68.341546
 20
154.838100
 30
0.0
 10
70.215940
 20
154.876160
 30
0.0
 10
71.453107
 20
154.886432
 30
0.0
 10
72.080980
 20
154.992406
 30
0.0
 10
72.271486
 20
155.024560
 30
0.0
 11
56.874207
 21
166.702102
 31
0.0
 11
60.250493
 21
166.268107
 31
0.0
 11
61.861054
 21
164.841888
 31
0.0
 11
62.714432
 21
161.530338
 31
0.0
 11
63.321421
 21
158.432544
 31
0.0
 11
63.850269
 21
156.635281
 31
0.0
 11
64.465928
 21
155.577964
 31
0.0
 11
65.022671
 21
155.072285
 31
0.0
 11
66.103872
 21
154.881147
 31
0.0
 11
68.575535
 21
154.851456
 31
0.0
 11
70.371291
 21
154.875177
 31
0.0
 11
71.699095
 21
154.937366
 31
0.0
 11
72.271486
 21
155.024560
 31
0.0
  0
LINE
  5
19c
100
AcDbEntity
  8
decoupe
 62
7
100
AcDbLine
 10
88.695657
 20
180.844216
 30
0.0
 11
90.254765
 21
181.466541
 31
0.0
  0
LINE
  5
19d
100
AcDbEntity
  8
decoupe
 62
7
100
AcDbLine
 10
90.254765
 20
181.466541
 30
0.0
 11
90.254765
 21
184.186204
 31
0.0
  0
SPLINE
  5
19e
100
AcDbEntity
  8
decoupe
 62
7
100
AcDbSpline
 70
0
 71
3
 72
13
 73
9
 74
7
 40
0.000000
 40
0.000000
 40
0.000000
 40
0.000000
 40
4.263530
 40
9.052659
 40
14.064229
 40
17.668871
 40
21.043005
 40
24.167076
 40
24.167076
 40
24.167076
 40
24.167076
 10
88.913826
 20
161.127756
 30
0.0
 10
87.661515
 20
161.863314
 30
0.0
 10
85.002511
 20
163.425108
 30
0.0
 10
83.029339
 20
167.952362
 30
0.0
 10
82.696148
 20
172.501698
 30
0.0
 10
83.960662
 20
176.347340
 30
0.0
 10
85.871135
 20
179.242355
 30
0.0
 10
87.778617
 20
180.324138
 30
0.0
 10
88.695657
 20
180.844216
 30
0.0
 11
88.913826
 21
161.127756
 31
0.0
 11
85.464978
 21
163.634375
 31
0.0
 11
83.330706
 21
167.921639
 31
0.0
 11
83.041044
 21
172.924831
 31
0.0
 11
84.140700
 21
176.357643
 31
0.0
 11
86.101396
 21
179.103633
 31
0.0
 11
88.695657
 21
180.844216
 31
0.0
  0
LINE
  5
19f
100
AcDbEntity
  8
decoupe
 62
7
100
AcDbLine
 10
90.111371
 20
157.889454
 30
0.0
 11
90.111371
 21
157.889454
 31
0.0
  0
SPLINE
  5
1a0
100
AcDbEntity
  8
decoupe
 62
7
100
AcDbSpline
 70
0
 71
3
 72
25
 73
21
 74
19
 40
0.000000
 40
0.000000
 40
0.000000
 40
0.000000
 40
1.685412
 40
2.570163
 40
2.987432
 40
3.504384
 40
4.448849
 40
5.624989
 40
14.131033
 40
22.619453
 40
31.547554
 40
35.361697
 40
39.678820
 40
43.643830
 40
46.169574
 40
48.852996
 40
50.599046
 40
51.024379
 40
52.051554
 40
53.545571
 40
53.545571
 40
53.545571
 40
53.545571
 10
90.254765
 20
184.186204
 30
0.0
 10
90.239962
 20
184.746421
 30
0.0
 10
90.217389
 20
185.600722
 30
0.0
 10
90.215404
 20
186.605580
 30
0.0
 10
89.827501
 20
187.166770
 30
0.0
 10
89.137156
 20
187.045919
 30
0.0
 10
88.297615
 20
186.969921
 30
0.0
 10
84.788485
 20
186.259001
 30
0.0
 10
79.195506
 20
183.132986
 30
0.0
 10
74.927708
 20
175.216492
 30
0.0
 10
74.815832
 20
167.712557
 30
0.0
 10
77.355083
 20
162.553696
 30
0.0
 10
79.932025
 20
159.409307
 30
0.0
 10
82.677108
 20
157.073863
 30
0.0
 10
85.620126
 20
155.804080
 30
0.0
 10
87.559196
 20
155.477211
 30
0.0
 10
89.715853
 20
154.464628
 30
0.0
 10
90.047881
 20
155.588621
 30
0.0
 10
90.081479
 20
156.541850
 30
0.0
 10
90.100248
 20
157.388025
 30
0.0
 10
90.111371
 20
157.889454
 30
0.0
 11
90.254765
 21
184.186204
 31
0.0
 11
90.219330
 21
185.871243
 31
0.0
 11
90.087283
 21
186.746084
 31
0.0
 11
89.820019
 21
187.066527
 31
0.0
 11
89.303240
 21
187.079914
 31
0.0
 11
88.366345
 21
186.960576
 31
0.0
 11
87.212167
 21
186.734349
 31
0.0
 11
79.799607
 21
182.562212
 31
0.0
 11
75.659407
 21
175.151948
 31
0.0
 11
75.752988
 21
166.224337
 31
0.0
 11
77.395055
 21
162.781765
 31
0.0
 11
80.099196
 21
159.416475
 31
0.0
 11
83.204473
 21
156.951003
 31
0.0
 11
85.518109
 21
155.937851
 31
0.0
 11
88.089472
 21
155.170491
 31
0.0
 11
89.824588
 21
154.975391
 31
0.0
 11
89.973898
 21
155.373656
 31
0.0
 11
90.074499
 21
156.395892
 31
0.0
 11
90.111371
 21
157.889454
 31
0.0
  0
LINE
  5
1a1
100
AcDbEntity
  8
decoupe
 62
7
100
AcDbLine
 10
94.394889
 20
186.969697
 30
0.0
 11
92.960966
 21
187.026621
 31
0.0
  0
LINE
  5
1a2
100
AcDbEntity
  8
decoupe
 62
7
100
AcDbLine
 10
92.960966
 20
187.026621
 30
0.0
 11
92.960966
 21
184.268113
 31
0.0
  0
LINE
  5
1a3
100
AcDbEntity
  8
decoupe
 62
7
100
AcDbLine
 10
92.960966
 20
184.268113
 30
0.0
 11
92.960966
 21
181.509602
 31
0.0
  0
LINE
  5
1a4
100
AcDbEntity
  8
decoupe
 62
7
100
AcDbLine
 10
92.960966
 20
181.509602
 30
0.0
 11
94.467324
 21
180.988126
 31
0.0
  0
SPLINE
  5
1a5
100
AcDbEntity
  8
decoupe
 62
7
100
AcDbSpline
 70
0
 71
3
 72
16
 73
12
 74
10
 40
0.000000
 40
0.000000
 40
0.000000
 40
0.000000
 40
5.151433
 40
10.612628
 40
15.965755
 40
18.827401
 40
22.133698
 40
25.017203
 40
31.327195
 40
37.612638
 40
43.392126
 40
43.392126
 40
43.392126
 40
43.392126
 10
96.832564
 20
155.588321
 30
0.0
 10
98.436727
 20
156.250842
 30
0.0
 10
101.741512
 20
157.615723
 30
0.0
 10
105.444272
 20
161.609256
 30
0.0
 10
107.652792
 20
165.712838
 30
0.0
 10
108.133367
 20
169.557202
 30
0.0
 10
108.126504
 20
172.573252
 30
0.0
 10
107.582532
 20
176.740908
 30
0.0
 10
104.933135
 20
181.330673
 30
0.0
 10
100.298059
 20
185.665735
 30
0.0
 10
96.306820
 20
186.547367
 30
0.0
 10
94.394889
 20
186.969697
 30
0.0
 11
96.832564
 21
155.588321
 31
0.0
 11
101.446303
 21
157.879755
 31
0.0
 11
105.275098
 21
161.773979
 31
0.0
 11
107.637318
 21
166.577716
 31
0.0
 11
108.058432
 21
169.408207
 31
0.0
 11
108.050666
 21
172.714495
 31
0.0
 11
107.616207
 21
175.565082
 31
0.0
 11
104.672600
 21
181.146406
 31
0.0
 11
99.913176
 21
185.251851
 31
0.0
 11
94.394889
 21
186.969697
 31
0.0
  0
LINE
  5
1a6
100
AcDbEntity
  8
decoupe
 62
7
100
AcDbLine
 10
96.832561
 20
155.588321
 30
0.0
 11
96.832564
 21
155.588321
 31
0.0
  0
LINE
  5
1a7
100
AcDbEntity
  8
decoupe
 62
7
100
AcDbLine
 10
118.198022
 20
171.146174
 30
0.0
 11
118.198022
 21
187.302803
 31
0.0
  0
LINE
  5
1a8
100
AcDbEntity
  8
decoupe
 62
7
100
AcDbLine
 10
118.198022
 20
187.302803
 30
0.0
 11
114.469822
 21
187.302803
 31
0.0
  0
LINE
  5
1a9
100
AcDbEntity
  8
decoupe
 62
7
100
AcDbLine
 10
114.469822
 20
187.302803
 30
0.0
 11
110.741621
 21
187.302803
 31
0.0
  0
LINE
  5
1aa
100
AcDbEntity
  8
decoupe
 62
7
100
AcDbLine
 10
110.741621
 20
187.302803
 30
0.0
 11
110.667176
 21
171.422357
 31
0.0
  0
SPLINE
  5
1ab
100
AcDbEntity
  8
decoupe
 62
7
100
AcDbSpline
 70
0
 71
3
 72
22
 73
18
 74
16
 40
0.000000
 40
0.000000
 40
0.000000
 40
0.000000
 40
6.796063
 40
13.952431
 40
21.242246
 40
22.399798
 40
23.453403
 40
24.335492
 40
25.023966
 40
25.625968
 40
26.014914
 40
27.525481
 40
30.052339
 40
31.595261
 40
32.211023
 40
33.529961
 40
35.486878
 40
35.486878
 40
35.486878
 40
35.486878
 10
94.467324
 20
180.988126
 30
0.0
 10
96.404305
 20
179.639785
 30
0.0
 10
100.380958
 20
176.871619
 30
0.0
 10
101.279252
 20
169.129371
 30
0.0
 10
98.937118
 20
164.087705
 30
0.0
 10
96.490490
 20
162.065093
 30
0.0
 10
95.623756
 20
161.497293
 30
0.0
 10
94.809602
 20
161.168493
 30
0.0
 10
94.106180
 20
160.979999
 30
0.0
 10
93.593981
 20
160.776911
 30
0.0
 10
92.784569
 20
160.442389
 30
0.0
 10
92.939993
 20
158.556372
 30
0.0
 10
92.919048
 20
157.145904
 30
0.0
 10
92.579571
 20
154.959321
 30
0.0
 10
93.903567
 20
154.931005
 30
0.0
 10
95.118724
 20
155.169370
 30
0.0
 10
96.191632
 20
155.431645
 30
0.0
 10
96.832561
 20
155.588321
 30
0.0
 11
94.467324
 21
180.988126
 31
0.0
 11
99.474771
 21
176.393353
 31
0.0
 11
100.591565
 21
169.324663
 31
0.0
 11
97.340939
 21
162.799723
 31
0.0
 11
96.449973
 21
162.060734
 31
0.0
 11
95.558464
 21
161.499223
 31
0.0
 11
94.742833
 21
161.163325
 31
0.0
 11
94.085084
 21
160.959947
 31
0.0
 11
93.522205
 21
160.746465
 31
0.0
 11
93.176056
 21
160.569097
 31
0.0
 11
92.882342
 21
159.087360
 31
0.0
 11
92.807575
 21
156.561609
 31
0.0
 11
93.012156
 21
155.032309
 31
0.0
 11
93.622436
 21
154.950330
 31
0.0
 11
94.927624
 21
155.140283
 31
0.0
 11
96.832561
 21
155.588321
 31
0.0
  0
LINE
  5
1ac
100
AcDbEntity
  8
decoupe
 62
7
100
AcDbLine
 10
114.535822
 20
154.912207
 30
0.0
 11
118.198022
 21
154.989544
 31
0.0
  0
LINE
  5
1ad
100
AcDbEntity
  8
decoupe
 62
7
100
AcDbLine
 10
118.198022
 20
154.989544
 30
0.0
 11
118.198022
 21
171.146174
 31
0.0
  0
LINE
  5
1ae
100
AcDbEntity
  8
decoupe
 62
7
100
AcDbLine
 10
118.198022
 20
171.146174
 30
0.0
 11
118.198022
 21
171.146174
 31
0.0
  0
LINE
  5
1af
100
AcDbEntity
  8
decoupe
 62
7
100
AcDbLine
 10
148.005382
 20
171.146174
 30
0.0
 11
148.005382
 21
187.302803
 31
0.0
  0
LINE
  5
1b0
100
AcDbEntity
  8
decoupe
 62
7
100
AcDbLine
 10
148.005382
 20
187.302803
 30
0.0
 11
144.277182
 21
187.302803
 31
0.0
  0
LINE
  5
1b1
100
AcDbEntity
  8
decoupe
 62
7
100
AcDbLine
 10
144.277182
 20
187.302803
 30
0.0
 11
140.548981
 21
187.302803
 31
0.0
  0
LINE
  5
1b2
100
AcDbEntity
  8
decoupe
 62
7
100
AcDbLine
 10
140.548981
 20
187.302803
 30
0.0
 11
140.474536
 21
171.422357
 31
0.0
  0
SPLINE
  5
1b3
100
AcDbEntity
  8
decoupe
 62
7
100
AcDbSpline
 70
0
 71
3
 72
13
 73
9
 74
7
 40
0.000000
 40
0.000000
 40
0.000000
 40
0.000000
 40
8.047506
 40
13.879758
 40
16.234817
 40
16.699144
 40
17.893843
 40
20.087607
 40
20.087607
 40
20.087607
 40
20.087607
 10
110.667176
 20
171.422357
 30
0.0
 10
110.546342
 20
168.671006
 30
0.0
 10
110.337937
 20
163.925675
 30
0.0
 10
111.291972
 20
159.093907
 30
0.0
 10
110.085167
 20
155.443740
 30
0.0
 10
111.385663
 20
154.856857
 30
0.0
 10
112.678576
 20
154.924014
 30
0.0
 10
113.805942
 20
154.916847
 30
0.0
 10
114.535822
 20
154.912207
 30
0.0
 11
110.667176
 21
171.422357
 31
0.0
 11
110.648928
 21
163.374871
 31
0.0
 11
110.672641
 21
157.542668
 31
0.0
 11
110.733174
 21
155.188387
 31
0.0
 11
111.150542
 21
154.984907
 31
0.0
 11
112.342103
 21
154.898366
 31
0.0
 11
114.535822
 21
154.912207
 31
0.0
  0
LINE
  5
1b4
100
AcDbEntity
  8
decoupe
 62
7
100
AcDbLine
 10
144.343182
 20
154.912207
 30
0.0
 11
148.005382
 21
154.989544
 31
0.0
  0
LINE
  5
1b5
100
AcDbEntity
  8
decoupe
 62
7
100
AcDbLine
 10
148.005382
 20
154.989544
 30
0.0
 11
148.005382
 21
171.146174
 31
0.0
  0
LINE
  5
1b6
100
AcDbEntity
  8
decoupe
 62
7
100
AcDbLine
 10
148.005382
 20
171.146174
 30
0.0
 11
148.005382
 21
171.146174
 31
0.0
  0
SPLINE
  5
1b7
100
AcDbEntity
  8
decoupe
 62
7
100
AcDbSpline
 70
0
 71
3
 72
13
 73
9
 74
7
 40
0.000000
 40
0.000000
 40
0.000000
 40
0.000000
 40
8.047506
 40
13.879758
 40
16.234817
 40
16.699144
 40
17.893843
 40
20.087607
 40
20.087607
 40
20.087607
 40
20.087607
 10
140.474536
 20
171.422357
 30
0.0
 10
140.353702
 20
168.671006
 30
0.0
 10
140.145295
 20
163.925675
 30
0.0
 10
141.099331
 20
159.093907
 30
0.0
 10
139.892527
 20
155.443740
 30
0.0
 10
141.193023
 20
154.856857
 30
0.0
 10
142.485936
 20
154.924014
 30
0.0
 10
143.613302
 20
154.916847
 30
0.0
 10
144.343182
 20
154.912207
 30
0.0
 11
140.474536
 21
171.422357
 31
0.0
 11
140.456287
 21
163.374871
 31
0.0
 11
140.480000
 21
157.542668
 31
0.0
 11
140.540534
 21
155.188387
 31
0.0
 11
140.957902
 21
154.984907
 31
0.0
 11
142.149463
 21
154.898366
 31
0.0
 11
144.343182
 21
154.912207
 31
0.0
  0
LINE
  5
1b8
100
AcDbEntity
  8
decoupe
 62
7
100
AcDbLine
 10
153.436043
 20
187.388046
 30
0.0
 11
150.568194
 21
187.302803
 31
0.0
  0
LINE
  5
1b9
100
AcDbEntity
  8
decoupe
 62
7
100
AcDbLine
 10
150.568194
 20
187.302803
 30
0.0
 11
150.568194
 21
184.540985
 31
0.0
  0
LINE
  5
1ba
100
AcDbEntity
  8
decoupe
 62
7
100
AcDbLine
 10
150.568194
 20
184.540985
 30
0.0
 11
150.568194
 21
181.779170
 31
0.0
  0
LINE
  5
1bb
100
AcDbEntity
  8
decoupe
 62
7
100
AcDbLine
 10
150.568194
 20
181.779170
 30
0.0
 11
153.928092
 21
181.633021
 31
0.0
  0
SPLINE
  5
1bc
100
AcDbEntity
  8
decoupe
 62
7
100
AcDbSpline
 70
0
 71
3
 72
25
 73
21
 74
19
 40
0.000000
 40
0.000000
 40
0.000000
 40
0.000000
 40
0.200722
 40
0.436685
 40
0.691429
 40
2.025799
 40
4.286182
 40
7.528515
 40
10.546808
 40
12.834160
 40
14.556468
 40
14.943013
 40
15.492042
 40
16.462588
 40
19.485045
 40
22.325457
 40
25.224758
 40
30.587188
 40
36.033490
 40
43.372866
 40
43.372866
 40
43.372866
 40
43.372866
 10
169.216965
 20
155.139735
 30
0.0
 10
169.239926
 20
155.203694
 30
0.0
 10
169.289879
 20
155.342842
 30
0.0
 10
169.235180
 20
155.580014
 30
0.0
 10
168.886106
 20
156.079029
 30
0.0
 10
168.313638
 20
157.240093
 30
0.0
 10
167.768253
 20
159.461912
 30
0.0
 10
167.243741
 20
162.255426
 30
0.0
 10
166.680851
 20
165.032294
 30
0.0
 10
166.053708
 20
167.339513
 30
0.0
 10
165.220987
 20
168.518975
 30
0.0
 10
164.827852
 20
169.363314
 30
0.0
 10
165.142025
 20
169.981408
 30
0.0
 10
165.979343
 20
171.192208
 30
0.0
 10
167.154998
 20
173.200294
 30
0.0
 10
167.838783
 20
176.080715
 30
0.0
 10
167.688127
 20
179.794330
 30
0.0
 10
165.897437
 20
184.332476
 30
0.0
 10
160.192478
 20
187.340874
 30
0.0
 10
155.900038
 20
187.370843
 30
0.0
 10
153.436043
 20
187.388046
 30
0.0
 11
169.216965
 21
155.139735
 31
0.0
 11
169.267995
 21
155.333862
 31
0.0
 11
169.223940
 21
155.565675
 31
0.0
 11
169.094339
 21
155.784988
 31
0.0
 11
168.485497
 21
156.972361
 31
0.0
 11
167.863493
 21
159.145479
 31
0.0
 11
167.222737
 21
162.323868
 31
0.0
 11
166.592565
 21
165.275643
 31
0.0
 11
165.872563
 21
167.446721
 31
0.0
 11
165.026351
 21
168.946810
 31
0.0
 11
164.901832
 21
169.312750
 31
0.0
 11
165.076423
 21
169.833279
 31
0.0
 11
165.598173
 21
170.651653
 31
0.0
 11
167.039841
 21
173.308124
 31
0.0
 11
167.705419
 21
176.069455
 31
0.0
 11
167.602448
 21
178.966927
 31
0.0
 11
165.419610
 21
183.864975
 31
0.0
 11
160.738006
 21
186.647921
 31
0.0
 11
153.436043
 21
187.388046
 31
0.0
  0
LINE
  5
1bd
100
AcDbEntity
  8
decoupe
 62
7
100
AcDbLine
 10
153.436043
 20
172.733688
 30
0.0
 11
150.568194
 21
172.665173
 31
0.0
  0
LINE
  5
1be
100
AcDbEntity
  8
decoupe
 62
7
100
AcDbLine
 10
150.568194
 20
172.665173
 30
0.0
 11
150.568194
 21
169.765266
 31
0.0
  0
LINE
  5
1bf
100
AcDbEntity
  8
decoupe
 62
7
100
AcDbLine
 10
150.568194
 20
169.765266
 30
0.0
 11
150.568194
 21
166.865359
 31
0.0
  0
LINE
  5
1c0
100
AcDbEntity
  8
decoupe
 62
7
100
AcDbLine
 10
150.568194
 20
166.865359
 30
0.0
 11
153.777112
 21
166.700971
 31
0.0
  0
SPLINE
  5
1c1
100
AcDbEntity
  8
decoupe
 62
7
100
AcDbSpline
 70
0
 71
3
 72
19
 73
15
 74
13
 40
0.000000
 40
0.000000
 40
0.000000
 40
0.000000
 40
2.960098
 40
4.718507
 40
6.604972
 40
7.637577
 40
8.421932
 40
9.520938
 40
10.548828
 40
11.387169
 40
12.280796
 40
13.590859
 40
15.034398
 40
17.694581
 40
17.694581
 40
17.694581
 40
17.694581
 10
153.928092
 20
181.633021
 30
0.0
 10
154.911432
 20
181.613293
 30
0.0
 10
156.478911
 20
181.581845
 30
0.0
 10
158.664323
 20
180.780261
 30
0.0
 10
159.415684
 20
179.329335
 30
0.0
 10
160.012843
 20
178.246376
 30
0.0
 10
160.126302
 20
177.256540
 30
0.0
 10
159.899150
 20
176.305957
 30
0.0
 10
159.673768
 20
175.342228
 30
0.0
 10
159.225223
 20
174.519344
 30
0.0
 10
158.482084
 20
173.825142
 30
0.0
 10
157.508278
 20
173.050909
 30
0.0
 10
155.679497
 20
172.762380
 30
0.0
 10
154.318373
 20
172.744972
 30
0.0
 10
153.436043
 20
172.733688
 30
0.0
 11
153.928092
 21
181.633021
 31
0.0
 11
156.875651
 21
181.360848
 31
0.0
 11
158.477536
 21
180.635612
 31
0.0
 11
159.553588
 21
179.086141
 31
0.0
 11
159.981080
 21
178.146181
 31
0.0
 11
160.075861
 21
177.367574
 31
0.0
 11
159.894747
 21
176.283595
 31
0.0
 11
159.610380
 21
175.295822
 31
0.0
 11
159.201029
 21
174.564216
 31
0.0
 11
158.575587
 21
173.925944
 31
0.0
 11
157.499787
 21
173.178335
 31
0.0
 11
156.093588
 21
172.852130
 31
0.0
 11
153.436043
 21
172.733688
 31
0.0
  0
LINE
  5
1c2
100
AcDbEntity
  8
decoupe
 62
7
100
AcDbLine
 10
169.216965
 20
155.139735
 30
0.0
 11
169.216965
 21
155.139735
 31
0.0
  0
SPLINE
  5
1c3
100
AcDbEntity
  8
decoupe
 62
7
100
AcDbSpline
 70
0
 71
3
 72
19
 73
15
 74
13
 40
0.000000
 40
0.000000
 40
0.000000
 40
0.000000
 40
3.428445
 40
5.545230
 40
8.662223
 40
11.666371
 40
13.907646
 40
15.307205
 40
16.024320
 40
17.133347
 40
19.602682
 40
21.503222
 40
22.800226
 40
23.360134
 40
23.360134
 40
23.360134
 40
23.360134
 10
153.777112
 20
166.700971
 30
0.0
 10
154.951648
 20
166.716395
 30
0.0
 10
156.851366
 20
166.741343
 30
0.0
 10
159.315049
 20
164.799985
 30
0.0
 10
159.516825
 20
161.883131
 30
0.0
 10
160.062315
 20
159.190439
 30
0.0
 10
160.626454
 20
157.043492
 30
0.0
 10
161.176856
 20
155.681133
 30
0.0
 10
161.993263
 20
154.903229
 30
0.0
 10
163.502316
 20
154.871913
 30
0.0
 10
165.288689
 20
154.829881
 30
0.0
 10
167.179994
 20
154.891747
 30
0.0
 10
168.446236
 20
154.895999
 30
0.0
 10
169.038409
 20
155.083268
 30
0.0
 10
169.216965
 20
155.139735
 30
0.0
 11
153.777112
 21
166.700971
 31
0.0
 11
157.177421
 21
166.262645
 31
0.0
 11
158.808045
 21
164.912888
 31
0.0
 11
159.584249
 21
161.894088
 31
0.0
 11
160.145914
 21
158.942913
 31
0.0
 11
160.755035
 21
156.785996
 31
0.0
 11
161.380384
 21
155.533917
 31
0.0
 11
161.921731
 21
155.063601
 31
0.0
 11
163.015739
 21
154.881699
 31
0.0
 11
165.484889
 21
154.851456
 31
0.0
 11
167.385091
 21
154.887282
 31
0.0
 11
168.678242
 21
154.987170
 31
0.0
 11
169.216965
 21
155.139735
 31
0.0
  0
LINE
  5
1c4
100
AcDbEntity
  8
decoupe
 62
7
100
AcDbLine
 10
172.077047
 20
187.302803
 30
0.0
 11
172.147001
 21
154.992389
 31
0.0
  0
SPLINE
  5
1c5
100
AcDbEntity
  8
decoupe
 62
7
100
AcDbSpline
 70
0
 71
3
 72
10
 73
6
 74
4
 40
0.000000
 40
0.000000
 40
0.000000
 40
0.000000
 40
2.485468
 40
4.970936
 40
7.456404
 40
7.456404
 40
7.456404
 40
7.456404
 10
179.533451
 20
187.302803
 30
0.0
 10
178.704962
 20
187.302803
 30
0.0
 10
177.047983
 20
187.302803
 30
0.0
 10
174.562515
 20
187.302803
 30
0.0
 10
172.905536
 20
187.302803
 30
0.0
 10
172.077047
 20
187.302803
 30
0.0
 11
179.533451
 21
187.302803
 31
0.0
 11
177.047983
 21
187.302803
 31
0.0
 11
174.562515
 21
187.302803
 31
0.0
 11
172.077047
 21
187.302803
 31
0.0
  0
SPLINE
  5
1c6
100
AcDbEntity
  8
decoupe
 62
7
100
AcDbSpline
 70
0
 71
3
 72
10
 73
6
 74
4
 40
0.000000
 40
0.000000
 40
0.000000
 40
0.000000
 40
2.470124
 40
4.956726
 40
7.426373
 40
7.426373
 40
7.426373
 40
7.426373
 10
172.147001
 20
154.992389
 30
0.0
 10
172.970194
 20
154.973742
 30
0.0
 10
174.622072
 20
154.936323
 30
0.0
 10
177.097767
 20
154.944585
 30
0.0
 10
178.749574
 20
154.974588
 30
0.0
 10
179.572652
 20
154.989539
 30
0.0
 11
172.147001
 21
154.992389
 31
0.0
 11
174.616710
 21
154.947110
 31
0.0
 11
177.103310
 21
154.950768
 31
0.0
 11
179.572652
 21
154.989539
 31
0.0
  0
LINE
  5
1c7
100
AcDbEntity
  8
decoupe
 62
7
100
AcDbLine
 10
179.533451
 20
187.302798
 30
0.0
 11
179.533451
 21
187.302803
 31
0.0
  0
SPLINE
  5
1c8
100
AcDbEntity
  8
decoupe
 62
7
100
AcDbSpline
 70
0
 71
3
 72
10
 73
6
 74
4
 40
0.000000
 40
0.000000
 40
0.000000
 40
0.000000
 40
10.771091
 40
21.542194
 40
32.313285
 40
32.313285
 40
32.313285
 40
32.313285
 10
179.572652
 20
154.989539
 30
0.0
 10
179.570232
 20
158.579902
 30
0.0
 10
179.565392
 20
165.760633
 30
0.0
 10
179.540711
 20
176.531704
 30
0.0
 10
179.535871
 20
183.712434
 30
0.0
 10
179.533451
 20
187.302798
 30
0.0
 11
179.572652
 21
154.989539
 31
0.0
 11
179.562489
 21
165.760625
 31
0.0
 11
179.543614
 21
176.531711
 31
0.0
 11
179.533451
 21
187.302798
 31
0.0
  0
LINE
  5
1c9
100
AcDbEntity
  8
decoupe
 62
7
100
AcDbLine
 10
184.363871
 20
154.874403
 30
0.0
 11
208.749084
 21
154.989375
 31
0.0
  0
SPLINE
  5
1ca
100
AcDbEntity
  8
decoupe
 62
7
100
AcDbSpline
 70
0
 71
3
 72
10
 73
6
 74
4
 40
0.000000
 40
0.000000
 40
0.000000
 40
0.000000
 40
10.809596
 40
21.618993
 40
32.428556
 40
32.428556
 40
32.428556
 40
32.428556
 10
184.372140
 20
187.302716
 30
0.0
 10
184.346936
 20
183.699587
 30
0.0
 10
184.296528
 20
176.493395
 30
0.0
 10
184.319546
 20
165.683805
 30
0.0
 10
184.349096
 20
158.477556
 30
0.0
 10
184.363871
 20
154.874403
 30
0.0
 11
184.372140
 21
187.302716
 31
0.0
 11
184.312966
 21
176.493282
 31
0.0
 11
184.323097
 21
165.683890
 31
0.0
 11
184.363871
 21
154.874403
 31
0.0
  0
SPLINE
  5
1cb
100
AcDbEntity
  8
decoupe
 62
7
100
AcDbSpline
 70
0
 71
3
 72
10
 73
6
 74
4
 40
0.000000
 40
0.000000
 40
0.000000
 40
0.000000
 40
1.933296
 40
3.866591
 40
5.799887
 40
5.799887
 40
5.799887
 40
5.799887
 10
208.749084
 20
154.989375
 30
0.0
 10
208.749084
 20
155.633807
 30
0.0
 10
208.749084
 20
156.922671
 30
0.0
 10
208.749084
 20
158.855966
 30
0.0
 10
208.749084
 20
160.144830
 30
0.0
 10
208.749084
 20
160.789262
 30
0.0
 11
208.749084
 21
154.989375
 31
0.0
 11
208.749084
 21
156.922671
 31
0.0
 11
208.749084
 21
158.855966
 31
0.0
 11
208.749084
 21
160.789262
 31
0.0
  0
LINE
  5
1cc
100
AcDbEntity
  8
decoupe
 62
7
100
AcDbLine
 10
191.945285
 20
160.974470
 30
0.0
 11
191.900088
 21
169.067412
 31
0.0
  0
SPLINE
  5
1cd
100
AcDbEntity
  8
decoupe
 62
7
100
AcDbSpline
 70
0
 71
3
 72
10
 73
6
 74
4
 40
0.000000
 40
0.000000
 40
0.000000
 40
0.000000
 40
5.601610
 40
11.203216
 40
16.804826
 40
16.804826
 40
16.804826
 40
16.804826
 10
208.749084
 20
160.789262
 30
0.0
 10
206.881965
 20
160.807038
 30
0.0
 10
203.147728
 20
160.842591
 30
0.0
 10
197.546495
 20
160.907628
 30
0.0
 10
193.812356
 20
160.952189
 30
0.0
 10
191.945285
 20
160.974470
 30
0.0
 11
208.749084
 21
160.789262
 31
0.0
 11
203.147748
 21
160.844543
 31
0.0
 11
197.546500
 21
160.907929
 31
0.0
 11
191.945285
 21
160.974470
 31
0.0
  0
SPLINE
  5
1ce
100
AcDbEntity
  8
decoupe
 62
7
100
AcDbSpline
 70
0
 71
3
 72
10
 73
6
 74
4
 40
0.000000
 40
0.000000
 40
0.000000
 40
0.000000
 40
5.233979
 40
10.467950
 40
15.701927
 40
15.701927
 40
15.701927
 40
15.701927
 10
191.900088
 20
169.067412
 30
0.0
 10
193.644744
 20
169.071056
 30
0.0
 10
197.134054
 20
169.078343
 30
0.0
 10
202.368032
 20
169.077965
 30
0.0
 10
205.857348
 20
169.075709
 30
0.0
 10
207.602006
 20
169.074581
 30
0.0
 11
191.900088
 21
169.067412
 31
0.0
 11
197.134058
 21
169.076458
 31
0.0
 11
202.368030
 21
169.077464
 31
0.0
 11
207.602006
 21
169.074581
 31
0.0
  0
SPLINE
  5
1cf
100
AcDbEntity
  8
decoupe
 62
7
100
AcDbSpline
 70
0
 71
3
 72
10
 73
6
 74
4
 40
0.000000
 40
0.000000
 40
0.000000
 40
0.000000
 40
1.933296
 40
3.866591
 40
5.799887
 40
5.799887
 40
5.799887
 40
5.799887
 10
207.602006
 20
169.074581
 30
0.0
 10
207.602006
 20
169.719013
 30
0.0
 10
207.602006
 20
171.007877
 30
0.0
 10
207.602006
 20
172.941172
 30
0.0
 10
207.602006
 20
174.230036
 30
0.0
 10
207.602006
 20
174.874468
 30
0.0
 11
207.602006
 21
169.074581
 31
0.0
 11
207.602006
 21
171.007877
 31
0.0
 11
207.602006
 21
172.941172
 31
0.0
 11
207.602006
 21
174.874468
 31
0.0
  0
LINE
  5
1d0
100
AcDbEntity
  8
decoupe
 62
7
100
AcDbLine
 10
191.906150
 20
174.981955
 30
0.0
 11
191.910552
 21
181.414087
 31
0.0
  0
SPLINE
  5
1d1
100
AcDbEntity
  8
decoupe
 62
7
100
AcDbSpline
 70
0
 71
3
 72
10
 73
6
 74
4
 40
0.000000
 40
0.000000
 40
0.000000
 40
0.000000
 40
5.232115
 40
10.464187
 40
15.696303
 40
15.696303
 40
15.696303
 40
15.696303
 10
207.602006
 20
174.874468
 30
0.0
 10
205.858096
 20
174.896164
 30
0.0
 10
202.370290
 20
174.939556
 30
0.0
 10
197.138213
 20
174.963785
 30
0.0
 10
193.650176
 20
174.975898
 30
0.0
 10
191.906150
 20
174.981955
 30
0.0
 11
207.602006
 21
174.874468
 31
0.0
 11
202.370215
 21
174.932746
 31
0.0
 11
197.138230
 21
174.962775
 31
0.0
 11
191.906150
 21
174.981955
 31
0.0
  0
SPLINE
  5
1d2
100
AcDbEntity
  8
decoupe
 62
7
100
AcDbSpline
 70
0
 71
3
 72
10
 73
6
 74
4
 40
0.000000
 40
0.000000
 40
0.000000
 40
0.000000
 40
5.612998
 40
11.225888
 40
16.838857
 40
16.838857
 40
16.838857
 40
16.838857
 10
191.910552
 20
181.414087
 30
0.0
 10
193.781558
 20
181.413017
 30
0.0
 10
197.523533
 20
181.410877
 30
0.0
 10
203.136384
 20
181.450324
 30
0.0
 10
206.878170
 20
181.485331
 30
0.0
 10
208.749076
 20
181.502835
 30
0.0
 11
191.910552
 21
181.414087
 31
0.0
 11
197.523549
 21
181.417986
 31
0.0
 11
203.136333
 21
181.452501
 31
0.0
 11
208.749076
 21
181.502835
 31
0.0
  0
SPLINE
  5
1d3
100
AcDbEntity
  8
decoupe
 62
7
100
AcDbSpline
 70
0
 71
3
 72
10
 73
6
 74
4
 40
0.000000
 40
0.000000
 40
0.000000
 40
0.000000
 40
1.945790
 40
3.891581
 40
5.837372
 40
5.837372
 40
5.837372
 40
5.837372
 10
208.749076
 20
181.502835
 30
0.0
 10
208.749076
 20
182.151432
 30
0.0
 10
208.749076
 20
183.448625
 30
0.0
 10
208.749076
 20
185.394416
 30
0.0
 10
208.749076
 20
186.691610
 30
0.0
 10
208.749076
 20
187.340206
 30
0.0
 11
208.749076
 21
181.502835
 31
0.0
 11
208.749076
 21
183.448625
 31
0.0
 11
208.749076
 21
185.394416
 31
0.0
 11
208.749076
 21
187.340206
 31
0.0
  0
LINE
  5
1d4
100
AcDbEntity
  8
decoupe
 62
7
100
AcDbLine
 10
184.372140
 20
187.302716
 30
0.0
 11
184.372140
 21
187.302716
 31
0.0
  0
LINE
  5
1d5
100
AcDbEntity
  8
decoupe
 62
7
100
AcDbLine
 10
237.436296
 20
181.203191
 30
0.0
 11
237.492204
 21
184.444115
 31
0.0
  0
LINE
  5
1d6
100
AcDbEntity
  8
decoupe
 62
7
100
AcDbLine
 10
237.492204
 20
184.444115
 30
0.0
 11
237.408971
 21
187.026559
 31
0.0
  0
LINE
  5
1d7
100
AcDbEntity
  8
decoupe
 62
7
100
AcDbLine
 10
237.408971
 20
187.026559
 30
0.0
 11
224.933868
 21
187.026559
 31
0.0
  0
LINE
  5
1d8
100
AcDbEntity
  8
decoupe
 62
7
100
AcDbLine
 10
224.933868
 20
187.026559
 30
0.0
 11
212.458763
 21
187.026559
 31
0.0
  0
LINE
  5
1d9
100
AcDbEntity
  8
decoupe
 62
7
100
AcDbLine
 10
212.458763
 20
187.026559
 30
0.0
 11
212.376080
 21
184.287569
 31
0.0
  0
SPLINE
  5
1da
100
AcDbEntity
  8
decoupe
 62
7
100
AcDbSpline
 70
0
 71
3
 72
10
 73
6
 74
4
 40
0.000000
 40
0.000000
 40
0.000000
 40
0.000000
 40
8.125664
 40
16.251315
 40
24.376973
 40
24.376973
 40
24.376973
 40
24.376973
 10
208.749076
 20
187.340206
 30
0.0
 10
206.040531
 20
187.332917
 30
0.0
 10
200.623446
 20
187.318337
 30
0.0
 10
192.497796
 20
187.305394
 30
0.0
 10
187.080693
 20
187.303609
 30
0.0
 10
184.372140
 20
187.302716
 30
0.0
 11
208.749076
 21
187.340206
 31
0.0
 11
200.623438
 21
187.319825
 31
0.0
 11
192.497797
 21
187.307105
 31
0.0
 11
184.372140
 21
187.302716
 31
0.0
  0
LINE
  5
1db
100
AcDbEntity
  8
decoupe
 62
7
100
AcDbLine
 10
221.232456
 20
181.108711
 30
0.0
 11
221.274349
 21
167.693786
 31
0.0
  0
SPLINE
  5
1dc
100
AcDbEntity
  8
decoupe
 62
7
100
AcDbSpline
 70
0
 71
3
 72
13
 73
9
 74
7
 40
0.000000
 40
0.000000
 40
0.000000
 40
0.000000
 40
1.623070
 40
2.572506
 40
3.020225
 40
4.254714
 40
7.282572
 40
11.594071
 40
11.594071
 40
11.594071
 40
11.594071
 10
212.376080
 20
184.287569
 30
0.0
 10
212.371482
 20
183.745501
 30
0.0
 10
212.364194
 20
182.886342
 30
0.0
 10
212.359321
 20
181.887047
 30
0.0
 10
212.749251
 20
181.010193
 30
0.0
 10
214.656212
 20
181.448443
 30
0.0
 10
217.267524
 20
181.020416
 30
0.0
 10
219.765199
 20
181.076037
 30
0.0
 10
221.232456
 20
181.108711
 30
0.0
 11
212.376080
 21
184.287569
 31
0.0
 11
212.363534
 21
182.664548
 31
0.0
 11
212.455150
 21
181.719543
 31
0.0
 11
212.663264
 21
181.323133
 31
0.0
 11
213.894270
 21
181.230461
 31
0.0
 11
216.921220
 21
181.156325
 31
0.0
 11
221.232456
 21
181.108711
 31
0.0
  0
LINE
  5
1dd
100
AcDbEntity
  8
decoupe
 62
7
100
AcDbLine
 10
225.143328
 20
154.912204
 30
0.0
 11
228.805605
 21
154.989375
 31
0.0
  0
LINE
  5
1de
100
AcDbEntity
  8
decoupe
 62
7
100
AcDbLine
 10
228.805605
 20
154.989375
 30
0.0
 11
228.805605
 21
167.417626
 31
0.0
  0
LINE
  5
1df
100
AcDbEntity
  8
decoupe
 62
7
100
AcDbLine
 10
228.805605
 20
167.417626
 30
0.0
 11
228.767019
 21
181.089419
 31
0.0
  0
LINE
  5
1e0
100
AcDbEntity
  8
decoupe
 62
7
100
AcDbLine
 10
228.767019
 20
181.089419
 30
0.0
 11
237.436296
 21
181.203191
 31
0.0
  0
SPLINE
  5
1e1
100
AcDbEntity
  8
decoupe
 62
7
100
AcDbSpline
 70
0
 71
3
 72
13
 73
9
 74
7
 40
0.000000
 40
0.000000
 40
0.000000
 40
0.000000
 40
6.169474
 40
10.662140
 40
12.506039
 40
12.970537
 40
14.165305
 40
16.358989
 40
16.358989
 40
16.358989
 40
16.358989
 10
221.274349
 20
167.693786
 30
0.0
 10
221.197784
 20
165.587118
 30
0.0
 10
221.065462
 20
161.946354
 30
0.0
 10
221.746919
 20
158.203332
 30
0.0
 10
220.841232
 20
155.358798
 30
0.0
 10
221.999104
 20
154.860448
 30
0.0
 10
223.282161
 20
154.921622
 30
0.0
 10
224.411921
 20
154.915905
 30
0.0
 10
225.143328
 20
154.912204
 30
0.0
 11
221.274349
 21
167.693786
 31
0.0
 11
221.283478
 21
161.524319
 31
0.0
 11
221.293496
 21
157.031664
 31
0.0
 11
221.340494
 21
155.188364
 31
0.0
 11
221.758057
 21
154.984897
 31
0.0
 11
222.949688
 21
154.898363
 31
0.0
 11
225.143328
 21
154.912204
 31
0.0
  0
LINE
  5
1e2
100
AcDbEntity
  8
decoupe
 62
7
100
AcDbLine
 10
26.606811
 20
187.386350
 30
0.0
 11
23.882356
 21
187.302803
 31
0.0
  0
LINE
  5
1e3
100
AcDbEntity
  8
decoupe
 62
7
100
AcDbLine
 10
23.882356
 20
187.302803
 30
0.0
 11
23.882356
 21
184.402894
 31
0.0
  0
LINE
  5
1e4
100
AcDbEntity
  8
decoupe
 62
7
100
AcDbLine
 10
23.882356
 20
184.402894
 30
0.0
 11
23.882356
 21
181.502987
 31
0.0
  0
LINE
  5
1e5
100
AcDbEntity
  8
decoupe
 62
7
100
AcDbLine
 10
23.882356
 20
181.502987
 30
0.0
 11
27.242254
 21
181.356841
 31
0.0
  0
SPLINE
  5
1e6
100
AcDbEntity
  8
decoupe
 62
7
100
AcDbSpline
 70
0
 71
3
 72
16
 73
12
 74
10
 40
0.000000
 40
0.000000
 40
0.000000
 40
0.000000
 40
3.826273
 40
7.278990
 40
10.394599
 40
15.425840
 40
20.368343
 40
24.829166
 40
28.189645
 40
31.789167
 40
36.375148
 40
36.375148
 40
36.375148
 40
36.375148
 10
31.195366
 20
166.184182
 30
0.0
 10
32.446956
 20
166.459380
 30
0.0
 10
34.827945
 20
166.982909
 30
0.0
 10
37.866237
 20
168.791954
 30
0.0
 10
40.389392
 20
171.835670
 30
0.0
 10
41.337463
 20
176.271083
 30
0.0
 10
40.680159
 20
181.149875
 30
0.0
 10
38.106216
 20
184.800388
 30
0.0
 10
34.665771
 20
186.592836
 30
0.0
 10
30.876648
 20
187.442017
 30
0.0
 10
28.140023
 20
187.406339
 30
0.0
 10
26.606811
 20
187.386350
 30
0.0
 11
31.195366
 21
166.184182
 31
0.0
 11
34.880125
 21
167.215160
 31
0.0
 11
37.829061
 21
169.010997
 31
0.0
 11
39.799824
 21
171.424109
 31
0.0
 11
41.044489
 21
176.298963
 31
0.0
 11
40.252643
 21
181.177622
 31
0.0
 11
37.630961
 21
184.786739
 31
0.0
 11
34.694080
 21
186.420003
 31
0.0
 11
31.190648
 21
187.246150
 31
0.0
 11
26.606811
 21
187.386350
 31
0.0
  0
LINE
  5
1e7
100
AcDbEntity
  8
decoupe
 62
7
100
AcDbLine
 10
27.195213
 20
172.250902
 30
0.0
 11
23.882356
 21
172.112810
 31
0.0
  0
LINE
  5
1e8
100
AcDbEntity
  8
decoupe
 62
7
100
AcDbLine
 10
23.882356
 20
172.112810
 30
0.0
 11
23.799656
 21
169.370652
 31
0.0
  0
SPLINE
  5
1e9
100
AcDbEntity
  8
decoupe
 62
7
100
AcDbSpline
 70
0
 71
3
 72
19
 73
15
 74
13
 40
0.000000
 40
0.000000
 40
0.000000
 40
0.000000
 40
2.937328
 40
4.692956
 40
6.582949
 40
7.540138
 40
8.297233
 40
9.168653
 40
9.933897
 40
10.739775
 40
11.421729
 40
12.992870
 40
14.684012
 40
17.511702
 40
17.511702
 40
17.511702
 40
17.511702
 10
27.242254
 20
181.356841
 30
0.0
 10
28.219202
 20
181.337026
 30
0.0
 10
29.780069
 20
181.305367
 30
0.0
 10
31.949021
 20
180.515713
 30
0.0
 10
32.742070
 20
179.118665
 30
0.0
 10
33.315405
 20
178.066500
 30
0.0
 10
33.491914
 20
177.206510
 30
0.0
 10
33.401498
 20
176.405909
 30
0.0
 10
33.216374
 20
175.613402
 30
0.0
 10
32.969228
 20
174.900644
 30
0.0
 10
32.518072
 20
173.989328
 30
0.0
 10
31.660111
 20
172.909789
 30
0.0
 10
29.634022
 20
172.330634
 30
0.0
 10
28.133915
 20
172.281591
 30
0.0
 10
27.195213
 20
172.250902
 30
0.0
 11
27.242254
 21
181.356841
 31
0.0
 11
30.167369
 21
181.089264
 31
0.0
 11
31.771858
 21
180.376633
 31
0.0
 11
32.886196
 21
178.850093
 31
0.0
 11
33.298701
 21
177.986350
 31
0.0
 11
33.446788
 21
177.243880
 31
0.0
 11
33.379847
 21
176.375035
 31
0.0
 11
33.206818
 21
175.629609
 31
0.0
 11
32.939138
 21
174.869487
 31
0.0
 11
32.634758
 21
174.259229
 31
0.0
 11
31.599068
 21
173.077776
 31
0.0
 11
30.012602
 21
172.492039
 31
0.0
 11
27.195213
 21
172.250902
 31
0.0
  0
LINE
  5
1ea
100
AcDbEntity
  8
decoupe
 62
7
100
AcDbLine
 10
31.195366
 20
166.184182
 30
0.0
 11
31.195366
 21
166.184182
 31
0.0
  0
SPLINE
  5
1eb
100
AcDbEntity
  8
decoupe
 62
7
100
AcDbSpline
 70
0
 71
3
 72
13
 73
9
 74
7
 40
0.000000
 40
0.000000
 40
0.000000
 40
0.000000
 40
1.431403
 40
2.547864
 40
3.110849
 40
4.509993
 40
7.383102
 40
10.491258
 40
10.491258
 40
10.491258
 40
10.491258
 10
23.799656
 20
169.370652
 30
0.0
 10
23.785219
 20
168.888284
 30
0.0
 10
23.759521
 20
168.029680
 30
0.0
 10
23.811632
 20
167.042732
 30
0.0
 10
23.778373
 20
165.883691
 30
0.0
 10
25.969508
 20
166.012440
 30
0.0
 10
28.091872
 20
165.820910
 30
0.0
 10
30.134116
 20
166.059960
 30
0.0
 10
31.195366
 20
166.184182
 30
0.0
 11
23.799656
 21
169.370652
 31
0.0
 11
23.777926
 21
167.939414
 31
0.0
 11
23.800452
 21
166.823180
 31
0.0
 11
23.862353
 21
166.263608
 31
0.0
 11
25.225689
 21
165.949100
 31
0.0
 11
28.098630
 21
165.917982
 31
0.0
 11
31.195366
 21
166.184182
 31
0.0
  0
LINE
  5
1ec
100
AcDbEntity
  8
decoupe
 62
7
100
AcDbLine
 10
124.775821
 20
187.286502
 30
0.0
 11
120.760837
 21
187.302787
 31
0.0
  0
LINE
  5
1ed
100
AcDbEntity
  8
decoupe
 62
7
100
AcDbLine
 10
120.760837
 20
187.302787
 30
0.0
 11
120.760837
 21
184.402877
 31
0.0
  0
LINE
  5
1ee
100
AcDbEntity
  8
decoupe
 62
7
100
AcDbLine
 10
120.760837
 20
184.402877
 30
0.0
 11
120.760837
 21
181.502970
 31
0.0
  0
LINE
  5
1ef
100
AcDbEntity
  8
decoupe
 62
7
100
AcDbLine
 10
120.760837
 20
181.502970
 30
0.0
 11
124.058861
 21
181.359017
 31
0.0
  0
SPLINE
  5
1f0
100
AcDbEntity
  8
decoupe
 62
7
100
AcDbSpline
 70
0
 71
3
 72
19
 73
15
 74
13
 40
0.000000
 40
0.000000
 40
0.000000
 40
0.000000
 40
2.555828
 40
4.883677
 40
7.251570
 40
9.770799
 40
12.238188
 40
15.244166
 40
19.045593
 40
22.238677
 40
25.623636
 40
28.086345
 40
30.772064
 40
34.641143
 40
34.641143
 40
34.641143
 40
34.641143
 10
128.737086
 20
166.294438
 30
0.0
 10
129.571127
 20
166.479156
 30
0.0
 10
131.164812
 20
166.832116
 30
0.0
 10
133.358881
 20
167.905727
 30
0.0
 10
135.256730
 20
169.396433
 30
0.0
 10
136.894190
 20
171.272065
 30
0.0
 10
137.809652
 20
173.833706
 30
0.0
 10
137.984899
 20
176.932577
 30
0.0
 10
137.755672
 20
180.296547
 30
0.0
 10
136.201187
 20
183.512272
 30
0.0
 10
133.792327
 20
185.427530
 30
0.0
 10
131.247049
 20
186.743358
 30
0.0
 10
128.249255
 20
187.259421
 30
0.0
 10
126.065071
 20
187.276451
 30
0.0
 10
124.775821
 20
187.286502
 30
0.0
 11
128.737086
 21
166.294438
 31
0.0
 11
131.207422
 21
166.949952
 31
0.0
 11
133.301157
 21
167.967378
 31
0.0
 11
135.170576
 21
169.420715
 31
0.0
 11
136.768142
 21
171.368610
 31
0.0
 11
137.641579
 21
173.676232
 31
0.0
 11
137.914363
 21
176.669807
 31
0.0
 11
137.479665
 21
180.446298
 31
0.0
 11
136.049073
 21
183.300977
 31
0.0
 11
133.484233
 21
185.509947
 31
0.0
 11
131.273316
 21
186.594740
 31
0.0
 11
128.641797
 21
187.131581
 31
0.0
 11
124.775821
 21
187.286502
 31
0.0
  0
LINE
  5
1f1
100
AcDbEntity
  8
decoupe
 62
7
100
AcDbLine
 10
124.058861
 20
172.250890
 30
0.0
 11
120.760837
 21
172.112799
 31
0.0
  0
LINE
  5
1f2
100
AcDbEntity
  8
decoupe
 62
7
100
AcDbLine
 10
120.760837
 20
172.112799
 30
0.0
 11
120.678135
 21
169.370641
 31
0.0
  0
SPLINE
  5
1f3
100
AcDbEntity
  8
decoupe
 62
7
100
AcDbSpline
 70
0
 71
3
 72
16
 73
12
 74
10
 40
0.000000
 40
0.000000
 40
0.000000
 40
0.000000
 40
3.056402
 40
4.871230
 40
6.582769
 40
9.002037
 40
11.363052
 40
13.708526
 40
14.493190
 40
15.909152
 40
17.658416
 40
17.658416
 40
17.658416
 40
17.658416
 10
124.058861
 20
181.359017
 30
0.0
 10
125.072236
 20
181.326370
 30
0.0
 10
126.687333
 20
181.274338
 30
0.0
 10
128.881443
 20
180.576784
 30
0.0
 10
130.012239
 20
178.837140
 30
0.0
 10
130.505949
 20
176.652575
 30
0.0
 10
129.800771
 20
174.329974
 30
0.0
 10
128.507830
 20
172.789050
 30
0.0
 10
126.999988
 20
172.488293
 30
0.0
 10
125.696215
 20
172.343341
 30
0.0
 10
124.641661
 20
172.283797
 30
0.0
 10
124.058861
 20
172.250890
 30
0.0
 11
124.058861
 21
181.359017
 31
0.0
 11
127.102349
 21
181.078347
 31
0.0
 11
128.782195
 21
180.391532
 31
0.0
 11
129.796695
 21
179.013070
 31
0.0
 11
130.296098
 21
176.645909
 31
0.0
 11
129.637565
 21
174.378592
 31
0.0
 11
127.971217
 21
172.727976
 31
0.0
 11
127.209823
 21
172.538300
 31
0.0
 11
125.804273
 21
172.366902
 31
0.0
 11
124.058861
 21
172.250890
 31
0.0
  0
LINE
  5
1f4
100
AcDbEntity
  8
decoupe
 62
7
100
AcDbLine
 10
128.737086
 20
166.294427
 30
0.0
 11
128.737086
 21
166.294438
 31
0.0
  0
SPLINE
  5
1f5
100
AcDbEntity
  8
decoupe
 62
7
100
AcDbSpline
 70
0
 71
3
 72
13
 73
9
 74
7
 40
0.000000
 40
0.000000
 40
0.000000
 40
0.000000
 40
1.431403
 40
2.547864
 40
3.110850
 40
4.685016
 40
7.866485
 40
11.161137
 40
11.161137
 40
11.161137
 40
11.161137
 10
120.678135
 20
169.370641
 30
0.0
 10
120.664192
 20
168.888627
 30
0.0
 10
120.639374
 20
168.030653
 30
0.0
 10
120.686817
 20
167.040366
 30
0.0
 10
120.664851
 20
165.824867
 30
0.0
 10
123.109024
 20
166.024403
 30
0.0
 10
125.406803
 20
165.829069
 30
0.0
 10
127.614133
 20
166.137511
 30
0.0
 10
128.737086
 20
166.294427
 30
0.0
 11
120.678135
 21
169.370641
 31
0.0
 11
120.656404
 21
167.939403
 31
0.0
 11
120.678928
 21
166.823169
 31
0.0
 11
120.740833
 21
166.263597
 31
0.0
 11
122.279658
 21
165.931911
 31
0.0
 11
125.461104
 21
165.944177
 31
0.0
 11
128.737086
 21
166.294427
 31
0.0
  0
LINE
  5
1f6
100
AcDbEntity
  8
decoupe
 62
7
100
AcDbLine
 10
240.661656
 20
154.877866
 30
0.0
 11
265.046869
 21
154.992838
 31
0.0
  0
SPLINE
  5
1f7
100
AcDbEntity
  8
decoupe
 62
7
100
AcDbSpline
 70
0
 71
3
 72
10
 73
6
 74
4
 40
0.000000
 40
0.000000
 40
0.000000
 40
0.000000
 40
10.809596
 40
21.618993
 40
32.428556
 40
32.428556
 40
32.428556
 40
32.428556
 10
240.669925
 20
187.306179
 30
0.0
 10
240.644721
 20
183.703050
 30
0.0
 10
240.594313
 20
176.496858
 30
0.0
 10
240.617331
 20
165.687268
 30
0.0
 10
240.646881
 20
158.481018
 30
0.0
 10
240.661656
 20
154.877866
 30
0.0
 11
240.669925
 21
187.306179
 31
0.0
 11
240.610751
 21
176.496745
 31
0.0
 11
240.620882
 21
165.687353
 31
0.0
 11
240.661656
 21
154.877866
 31
0.0
  0
SPLINE
  5
1f8
100
AcDbEntity
  8
decoupe
 62
7
100
AcDbSpline
 70
0
 71
3
 72
10
 73
6
 74
4
 40
0.000000
 40
0.000000
 40
0.000000
 40
0.000000
 40
1.933296
 40
3.866591
 40
5.799887
 40
5.799887
 40
5.799887
 40
5.799887
 10
265.046869
 20
154.992838
 30
0.0
 10
265.046869
 20
155.637270
 30
0.0
 10
265.046869
 20
156.926133
 30
0.0
 10
265.046869
 20
158.859429
 30
0.0
 10
265.046869
 20
160.148293
 30
0.0
 10
265.046869
 20
160.792725
 30
0.0
 11
265.046869
 21
154.992838
 31
0.0
 11
265.046869
 21
156.926133
 31
0.0
 11
265.046869
 21
158.859429
 31
0.0
 11
265.046869
 21
160.792725
 31
0.0
  0
LINE
  5
1f9
100
AcDbEntity
  8
decoupe
 62
7
100
AcDbLine
 10
248.243070
 20
160.977933
 30
0.0
 11
248.197872
 21
169.070875
 31
0.0
  0
SPLINE
  5
1fa
100
AcDbEntity
  8
decoupe
 62
7
100
AcDbSpline
 70
0
 71
3
 72
10
 73
6
 74
4
 40
0.000000
 40
0.000000
 40
0.000000
 40
0.000000
 40
5.601610
 40
11.203216
 40
16.804826
 40
16.804826
 40
16.804826
 40
16.804826
 10
265.046869
 20
160.792725
 30
0.0
 10
263.179750
 20
160.810501
 30
0.0
 10
259.445513
 20
160.846054
 30
0.0
 10
253.844280
 20
160.911091
 30
0.0
 10
250.110140
 20
160.955652
 30
0.0
 10
248.243070
 20
160.977933
 30
0.0
 11
265.046869
 21
160.792725
 31
0.0
 11
259.445532
 21
160.848005
 31
0.0
 11
253.844285
 21
160.911392
 31
0.0
 11
248.243070
 21
160.977933
 31
0.0
  0
SPLINE
  5
1fb
100
AcDbEntity
  8
decoupe
 62
7
100
AcDbSpline
 70
0
 71
3
 72
10
 73
6
 74
4
 40
0.000000
 40
0.000000
 40
0.000000
 40
0.000000
 40
5.233979
 40
10.467950
 40
15.701927
 40
15.701927
 40
15.701927
 40
15.701927
 10
248.197872
 20
169.070875
 30
0.0
 10
249.942529
 20
169.074519
 30
0.0
 10
253.431839
 20
169.081806
 30
0.0
 10
258.665817
 20
169.081428
 30
0.0
 10
262.155133
 20
169.079172
 30
0.0
 10
263.899791
 20
169.078044
 30
0.0
 11
248.197872
 21
169.070875
 31
0.0
 11
253.431843
 21
169.079921
 31
0.0
 11
258.665815
 21
169.080927
 31
0.0
 11
263.899791
 21
169.078044
 31
0.0
  0
SPLINE
  5
1fc
100
AcDbEntity
  8
decoupe
 62
7
100
AcDbSpline
 70
0
 71
3
 72
10
 73
6
 74
4
 40
0.000000
 40
0.000000
 40
0.000000
 40
0.000000
 40
1.933296
 40
3.866591
 40
5.799887
 40
5.799887
 40
5.799887
 40
5.799887
 10
263.899791
 20
169.078044
 30
0.0
 10
263.899791
 20
169.722476
 30
0.0
 10
263.899791
 20
171.011339
 30
0.0
 10
263.899791
 20
172.944635
 30
0.0
 10
263.899791
 20
174.233499
 30
0.0
 10
263.899791
 20
174.877931
 30
0.0
 11
263.899791
 21
169.078044
 31
0.0
 11
263.899791
 21
171.011339
 31
0.0
 11
263.899791
 21
172.944635
 31
0.0
 11
263.899791
 21
174.877931
 31
0.0
  0
LINE
  5
1fd
100
AcDbEntity
  8
decoupe
 62
7
100
AcDbLine
 10
248.203934
 20
174.985418
 30
0.0
 11
248.208337
 21
181.417550
 31
0.0
  0
SPLINE
  5
1fe
100
AcDbEntity
  8
decoupe
 62
7
100
AcDbSpline
 70
0
 71
3
 72
10
 73
6
 74
4
 40
0.000000
 40
0.000000
 40
0.000000
 40
0.000000
 40
5.232115
 40
10.464187
 40
15.696303
 40
15.696303
 40
15.696303
 40
15.696303
 10
263.899791
 20
174.877931
 30
0.0
 10
262.155881
 20
174.899627
 30
0.0
 10
258.668075
 20
174.943019
 30
0.0
 10
253.435998
 20
174.967248
 30
0.0
 10
249.947961
 20
174.979361
 30
0.0
 10
248.203934
 20
174.985418
 30
0.0
 11
263.899791
 21
174.877931
 31
0.0
 11
258.668000
 21
174.936209
 31
0.0
 11
253.436015
 21
174.966238
 31
0.0
 11
248.203934
 21
174.985418
 31
0.0
  0
SPLINE
  5
1ff
100
AcDbEntity
  8
decoupe
 62
7
100
AcDbSpline
 70
0
 71
3
 72
10
 73
6
 74
4
 40
0.000000
 40
0.000000
 40
0.000000
 40
0.000000
 40
5.612998
 40
11.225888
 40
16.838857
 40
16.838857
 40
16.838857
 40
16.838857
 10
248.208337
 20
181.417550
 30
0.0
 10
250.079343
 20
181.416480
 30
0.0
 10
253.821318
 20
181.414339
 30
0.0
 10
259.434169
 20
181.453787
 30
0.0
 10
263.175955
 20
181.488794
 30
0.0
 10
265.046861
 20
181.506298
 30
0.0
 11
248.208337
 21
181.417550
 31
0.0
 11
253.821334
 21
181.421449
 31
0.0
 11
259.434118
 21
181.455964
 31
0.0
 11
265.046861
 21
181.506298
 31
0.0
  0
SPLINE
  5
200
100
AcDbEntity
  8
decoupe
 62
7
100
AcDbSpline
 70
0
 71
3
 72
10
 73
6
 74
4
 40
0.000000
 40
0.000000
 40
0.000000
 40
0.000000
 40
1.945790
 40
3.891581
 40
5.837372
 40
5.837372
 40
5.837372
 40
5.837372
 10
265.046861
 20
181.506298
 30
0.0
 10
265.046861
 20
182.154894
 30
0.0
 10
265.046861
 20
183.452088
 30
0.0
 10
265.046861
 20
185.397879
 30
0.0
 10
265.046861
 20
186.695072
 30
0.0
 10
265.046861
 20
187.343669
 30
0.0
 11
265.046861
 21
181.506298
 31
0.0
 11
265.046861
 21
183.452088
 31
0.0
 11
265.046861
 21
185.397879
 31
0.0
 11
265.046861
 21
187.343669
 31
0.0
  0
LINE
  5
201
100
AcDbEntity
  8
decoupe
 62
7
100
AcDbLine
 10
240.669925
 20
187.306179
 30
0.0
 11
240.669925
 21
187.306179
 31
0.0
  0
LINE
  5
202
100
AcDbEntity
  8
decoupe
 62
7
100
AcDbLine
 10
161.493979
 20
78.261309
 30
0.0
 11
161.549887
 21
81.502233
 31
0.0
  0
LINE
  5
203
100
AcDbEntity
  8
decoupe
 62
7
100
AcDbLine
 10
161.549887
 20
81.502233
 30
0.0
 11
161.466654
 21
84.084677
 31
0.0
  0
LINE
  5
204
100
AcDbEntity
  8
decoupe
 62
7
100
AcDbLine
 10
161.466654
 20
84.084677
 30
0.0
 11
148.991551
 21
84.084677
 31
0.0
  0
LINE
  5
205
100
AcDbEntity
  8
decoupe
 62
7
100
AcDbLine
 10
148.991551
 20
84.084677
 30
0.0
 11
136.516446
 21
84.084677
 31
0.0
  0
LINE
  5
206
100
AcDbEntity
  8
decoupe
 62
7
100
AcDbLine
 10
136.516446
 20
84.084677
 30
0.0
 11
136.433763
 21
81.345687
 31
0.0
  0
SPLINE
  5
207
100
AcDbEntity
  8
decoupe
 62
7
100
AcDbSpline
 70
0
 71
3
 72
10
 73
6
 74
4
 40
0.000000
 40
0.000000
 40
0.000000
 40
0.000000
 40
8.125664
 40
16.251315
 40
24.376973
 40
24.376973
 40
24.376973
 40
24.376973
 10
265.046861
 20
187.343669
 30
0.0
 10
262.338316
 20
187.336380
 30
0.0
 10
256.921230
 20
187.321800
 30
0.0
 10
248.795581
 20
187.308857
 30
0.0
 10
243.378477
 20
187.307071
 30
0.0
 10
240.669925
 20
187.306179
 30
0.0
 11
265.046861
 21
187.343669
 31
0.0
 11
256.921223
 21
187.323288
 31
0.0
 11
248.795582
 21
187.310568
 31
0.0
 11
240.669925
 21
187.306179
 31
0.0
  0
LINE
  5
208
100
AcDbEntity
  8
decoupe
 62
7
100
AcDbLine
 10
145.290139
 20
78.166829
 30
0.0
 11
145.332032
 21
64.751904
 31
0.0
  0
SPLINE
  5
209
100
AcDbEntity
  8
decoupe
 62
7
100
AcDbSpline
 70
0
 71
3
 72
13
 73
9
 74
7
 40
0.000000
 40
0.000000
 40
0.000000
 40
0.000000
 40
1.623070
 40
2.572506
 40
3.020225
 40
4.254714
 40
7.282572
 40
11.594071
 40
11.594071
 40
11.594071
 40
11.594071
 10
136.433763
 20
81.345687
 30
0.0
 10
136.429165
 20
80.803619
 30
0.0
 10
136.421877
 20
79.944460
 30
0.0
 10
136.417004
 20
78.945165
 30
0.0
 10
136.806934
 20
78.068311
 30
0.0
 10
138.713895
 20
78.506561
 30
0.0
 10
141.325207
 20
78.078534
 30
0.0
 10
143.822882
 20
78.134155
 30
0.0
 10
145.290139
 20
78.166829
 30
0.0
 11
136.433763
 21
81.345687
 31
0.0
 11
136.421217
 21
79.722666
 31
0.0
 11
136.512833
 21
78.777661
 31
0.0
 11
136.720947
 21
78.381251
 31
0.0
 11
137.951953
 21
78.288579
 31
0.0
 11
140.978903
 21
78.214443
 31
0.0
 11
145.290139
 21
78.166829
 31
0.0
  0
LINE
  5
20a
100
AcDbEntity
  8
decoupe
 62
7
100
AcDbLine
 10
149.201011
 20
51.970322
 30
0.0
 11
152.863288
 21
52.047493
 31
0.0
  0
LINE
  5
20b
100
AcDbEntity
  8
decoupe
 62
7
100
AcDbLine
 10
152.863288
 20
52.047493
 30
0.0
 11
152.863288
 21
64.475744
 31
0.0
  0
LINE
  5
20c
100
AcDbEntity
  8
decoupe
 62
7
100
AcDbLine
 10
152.863288
 20
64.475744
 30
0.0
 11
152.824702
 21
78.147537
 31
0.0
  0
LINE
  5
20d
100
AcDbEntity
  8
decoupe
 62
7
100
AcDbLine
 10
152.824702
 20
78.147537
 30
0.0
 11
161.493979
 21
78.261309
 31
0.0
  0
SPLINE
  5
20e
100
AcDbEntity
  8
decoupe
 62
7
100
AcDbSpline
 70
0
 71
3
 72
13
 73
9
 74
7
 40
0.000000
 40
0.000000
 40
0.000000
 40
0.000000
 40
6.169474
 40
10.662140
 40
12.506039
 40
12.970537
 40
14.165305
 40
16.358989
 40
16.358989
 40
16.358989
 40
16.358989
 10
145.332032
 20
64.751904
 30
0.0
 10
145.255467
 20
62.645236
 30
0.0
 10
145.123145
 20
59.004472
 30
0.0
 10
145.804602
 20
55.261450
 30
0.0
 10
144.898915
 20
52.416916
 30
0.0
 10
146.056787
 20
51.918566
 30
0.0
 10
147.339844
 20
51.979740
 30
0.0
 10
148.469604
 20
51.974023
 30
0.0
 10
149.201011
 20
51.970322
 30
0.0
 11
145.332032
 21
64.751904
 31
0.0
 11
145.341161
 21
58.582437
 31
0.0
 11
145.351179
 21
54.089782
 31
0.0
 11
145.398177
 21
52.246482
 31
0.0
 11
145.815740
 21
52.043015
 31
0.0
 11
147.007371
 21
51.956481
 31
0.0
 11
149.201011
 21
51.970322
 31
0.0
  0
LINE
  5
20f
100
AcDbEntity
  8
decoupe
 62
7
100
AcDbLine
 10
165.283783
 20
51.935984
 30
0.0
 11
189.668997
 21
52.050956
 31
0.0
  0
SPLINE
  5
210
100
AcDbEntity
  8
decoupe
 62
7
100
AcDbSpline
 70
0
 71
3
 72
10
 73
6
 74
4
 40
0.000000
 40
0.000000
 40
0.000000
 40
0.000000
 40
10.809596
 40
21.618993
 40
32.428556
 40
32.428556
 40
32.428556
 40
32.428556
 10
165.292052
 20
84.364297
 30
0.0
 10
165.266848
 20
80.761168
 30
0.0
 10
165.216440
 20
73.554976
 30
0.0
 10
165.239458
 20
62.745386
 30
0.0
 10
165.269008
 20
55.539136
 30
0.0
 10
165.283783
 20
51.935984
 30
0.0
 11
165.292052
 21
84.364297
 31
0.0
 11
165.232878
 21
73.554863
 31
0.0
 11
165.243009
 21
62.745471
 31
0.0
 11
165.283783
 21
51.935984
 31
0.0
  0
SPLINE
  5
211
100
AcDbEntity
  8
decoupe
 62
7
100
AcDbSpline
 70
0
 71
3
 72
10
 73
6
 74
4
 40
0.000000
 40
0.000000
 40
0.000000
 40
0.000000
 40
1.933296
 40
3.866591
 40
5.799887
 40
5.799887
 40
5.799887
 40
5.799887
 10
189.668997
 20
52.050956
 30
0.0
 10
189.668997
 20
52.695388
 30
0.0
 10
189.668997
 20
53.984251
 30
0.0
 10
189.668997
 20
55.917547
 30
0.0
 10
189.668997
 20
57.206411
 30
0.0
 10
189.668997
 20
57.850843
 30
0.0
 11
189.668997
 21
52.050956
 31
0.0
 11
189.668997
 21
53.984251
 31
0.0
 11
189.668997
 21
55.917547
 31
0.0
 11
189.668997
 21
57.850843
 31
0.0
  0
LINE
  5
212
100
AcDbEntity
  8
decoupe
 62
7
100
AcDbLine
 10
172.865198
 20
58.036051
 30
0.0
 11
172.820000
 21
66.128993
 31
0.0
  0
SPLINE
  5
213
100
AcDbEntity
  8
decoupe
 62
7
100
AcDbSpline
 70
0
 71
3
 72
10
 73
6
 74
4
 40
0.000000
 40
0.000000
 40
0.000000
 40
0.000000
 40
5.601610
 40
11.203216
 40
16.804826
 40
16.804826
 40
16.804826
 40
16.804826
 10
189.668997
 20
57.850843
 30
0.0
 10
187.801878
 20
57.868619
 30
0.0
 10
184.067640
 20
57.904172
 30
0.0
 10
178.466407
 20
57.969209
 30
0.0
 10
174.732268
 20
58.013770
 30
0.0
 10
172.865198
 20
58.036051
 30
0.0
 11
189.668997
 21
57.850843
 31
0.0
 11
184.067660
 21
57.906123
 31
0.0
 11
178.466412
 21
57.969510
 31
0.0
 11
172.865198
 21
58.036051
 31
0.0
  0
SPLINE
  5
214
100
AcDbEntity
  8
decoupe
 62
7
100
AcDbSpline
 70
0
 71
3
 72
10
 73
6
 74
4
 40
0.000000
 40
0.000000
 40
0.000000
 40
0.000000
 40
5.233979
 40
10.467950
 40
15.701927
 40
15.701927
 40
15.701927
 40
15.701927
 10
172.820000
 20
66.128993
 30
0.0
 10
174.564656
 20
66.132637
 30
0.0
 10
178.053966
 20
66.139924
 30
0.0
 10
183.287945
 20
66.139546
 30
0.0
 10
186.777260
 20
66.137290
 30
0.0
 10
188.521919
 20
66.136162
 30
0.0
 11
172.820000
 21
66.128993
 31
0.0
 11
178.053971
 21
66.138039
 31
0.0
 11
183.287942
 21
66.139045
 31
0.0
 11
188.521919
 21
66.136162
 31
0.0
  0
SPLINE
  5
215
100
AcDbEntity
  8
decoupe
 62
7
100
AcDbSpline
 70
0
 71
3
 72
10
 73
6
 74
4
 40
0.000000
 40
0.000000
 40
0.000000
 40
0.000000
 40
1.933296
 40
3.866591
 40
5.799887
 40
5.799887
 40
5.799887
 40
5.799887
 10
188.521919
 20
66.136162
 30
0.0
 10
188.521919
 20
66.780594
 30
0.0
 10
188.521919
 20
68.069457
 30
0.0
 10
188.521919
 20
70.002753
 30
0.0
 10
188.521919
 20
71.291617
 30
0.0
 10
188.521919
 20
71.936049
 30
0.0
 11
188.521919
 21
66.136162
 31
0.0
 11
188.521919
 21
68.069457
 31
0.0
 11
188.521919
 21
70.002753
 31
0.0
 11
188.521919
 21
71.936049
 31
0.0
  0
LINE
  5
216
100
AcDbEntity
  8
decoupe
 62
7
100
AcDbLine
 10
172.826062
 20
72.043536
 30
0.0
 11
172.830465
 21
78.475668
 31
0.0
  0
SPLINE
  5
217
100
AcDbEntity
  8
decoupe
 62
7
100
AcDbSpline
 70
0
 71
3
 72
10
 73
6
 74
4
 40
0.000000
 40
0.000000
 40
0.000000
 40
0.000000
 40
5.232115
 40
10.464187
 40
15.696303
 40
15.696303
 40
15.696303
 40
15.696303
 10
188.521919
 20
71.936049
 30
0.0
 10
186.778008
 20
71.957745
 30
0.0
 10
183.290203
 20
72.001137
 30
0.0
 10
178.058125
 20
72.025366
 30
0.0
 10
174.570088
 20
72.037479
 30
0.0
 10
172.826062
 20
72.043536
 30
0.0
 11
188.521919
 21
71.936049
 31
0.0
 11
183.290128
 21
71.994327
 31
0.0
 11
178.058142
 21
72.024356
 31
0.0
 11
172.826062
 21
72.043536
 31
0.0
  0
SPLINE
  5
218
100
AcDbEntity
  8
decoupe
 62
7
100
AcDbSpline
 70
0
 71
3
 72
10
 73
6
 74
4
 40
0.000000
 40
0.000000
 40
0.000000
 40
0.000000
 40
5.612998
 40
11.225888
 40
16.838857
 40
16.838857
 40
16.838857
 40
16.838857
 10
172.830465
 20
78.475668
 30
0.0
 10
174.701470
 20
78.474598
 30
0.0
 10
178.443445
 20
78.472457
 30
0.0
 10
184.056296
 20
78.511905
 30
0.0
 10
187.798082
 20
78.546912
 30
0.0
 10
189.668988
 20
78.564416
 30
0.0
 11
172.830465
 21
78.475668
 31
0.0
 11
178.443461
 21
78.479567
 31
0.0
 11
184.056245
 21
78.514082
 31
0.0
 11
189.668988
 21
78.564416
 31
0.0
  0
SPLINE
  5
219
100
AcDbEntity
  8
decoupe
 62
7
100
AcDbSpline
 70
0
 71
3
 72
10
 73
6
 74
4
 40
0.000000
 40
0.000000
 40
0.000000
 40
0.000000
 40
1.945790
 40
3.891581
 40
5.837372
 40
5.837372
 40
5.837372
 40
5.837372
 10
189.668988
 20
78.564416
 30
0.0
 10
189.668988
 20
79.213012
 30
0.0
 10
189.668988
 20
80.510206
 30
0.0
 10
189.668988
 20
82.455997
 30
0.0
 10
189.668988
 20
83.753190
 30
0.0
 10
189.668988
 20
84.401787
 30
0.0
 11
189.668988
 21
78.564416
 31
0.0
 11
189.668988
 21
80.510206
 31
0.0
 11
189.668988
 21
82.455997
 31
0.0
 11
189.668988
 21
84.401787
 31
0.0
  0
LINE
  5
21a
100
AcDbEntity
  8
decoupe
 62
7
100
AcDbLine
 10
165.292052
 20
84.364297
 30
0.0
 11
165.292052
 21
84.364297
 31
0.0
  0
SPLINE
  5
21b
100
AcDbEntity
  8
decoupe
 62
7
100
AcDbSpline
 70
0
 71
3
 72
10
 73
6
 74
4
 40
0.000000
 40
0.000000
 40
0.000000
 40
0.000000
 40
8.125664
 40
16.251315
 40
24.376973
 40
24.376973
 40
24.376973
 40
24.376973
 10
189.668988
 20
84.401787
 30
0.0
 10
186.960443
 20
84.394498
 30
0.0
 10
181.543358
 20
84.379918
 30
0.0
 10
173.417708
 20
84.366975
 30
0.0
 10
168.000605
 20
84.365189
 30
0.0
 10
165.292052
 20
84.364297
 30
0.0
 11
189.668988
 21
84.401787
 31
0.0
 11
181.543350
 21
84.381406
 31
0.0
 11
173.417709
 21
84.368686
 31
0.0
 11
165.292052
 21
84.364297
 31
0.0
  0
LINE
  5
21c
100
AcDbEntity
  8
decoupe
 62
7
100
AcDbLine
 10
196.342231
 20
103.346188
 30
0.0
 11
220.727445
 21
103.461160
 31
0.0
  0
SPLINE
  5
21d
100
AcDbEntity
  8
decoupe
 62
7
100
AcDbSpline
 70
0
 71
3
 72
10
 73
6
 74
4
 40
0.000000
 40
0.000000
 40
0.000000
 40
0.000000
 40
10.809596
 40
21.618993
 40
32.428556
 40
32.428556
 40
32.428556
 40
32.428556
 10
196.350501
 20
135.774501
 30
0.0
 10
196.325296
 20
132.171372
 30
0.0
 10
196.274888
 20
124.965180
 30
0.0
 10
196.297906
 20
114.155589
 30
0.0
 10
196.327456
 20
106.949340
 30
0.0
 10
196.342231
 20
103.346188
 30
0.0
 11
196.350501
 21
135.774501
 31
0.0
 11
196.291326
 21
124.965067
 31
0.0
 11
196.301457
 21
114.155675
 31
0.0
 11
196.342231
 21
103.346188
 31
0.0
  0
SPLINE
  5
21e
100
AcDbEntity
  8
decoupe
 62
7
100
AcDbSpline
 70
0
 71
3
 72
10
 73
6
 74
4
 40
0.000000
 40
0.000000
 40
0.000000
 40
0.000000
 40
1.933296
 40
3.866591
 40
5.799887
 40
5.799887
 40
5.799887
 40
5.799887
 10
220.727445
 20
103.461160
 30
0.0
 10
220.727445
 20
104.105592
 30
0.0
 10
220.727445
 20
105.394455
 30
0.0
 10
220.727445
 20
107.327751
 30
0.0
 10
220.727445
 20
108.616615
 30
0.0
 10
220.727445
 20
109.261047
 30
0.0
 11
220.727445
 21
103.461160
 31
0.0
 11
220.727445
 21
105.394455
 31
0.0
 11
220.727445
 21
107.327751
 31
0.0
 11
220.727445
 21
109.261047
 31
0.0
  0
LINE
  5
21f
100
AcDbEntity
  8
decoupe
 62
7
100
AcDbLine
 10
203.923646
 20
109.446255
 30
0.0
 11
203.878448
 21
117.539197
 31
0.0
  0
SPLINE
  5
220
100
AcDbEntity
  8
decoupe
 62
7
100
AcDbSpline
 70
0
 71
3
 72
10
 73
6
 74
4
 40
0.000000
 40
0.000000
 40
0.000000
 40
0.000000
 40
5.601610
 40
11.203216
 40
16.804826
 40
16.804826
 40
16.804826
 40
16.804826
 10
220.727445
 20
109.261047
 30
0.0
 10
218.860326
 20
109.278823
 30
0.0
 10
215.126089
 20
109.314376
 30
0.0
 10
209.524855
 20
109.379413
 30
0.0
 10
205.790716
 20
109.423974
 30
0.0
 10
203.923646
 20
109.446255
 30
0.0
 11
220.727445
 21
109.261047
 31
0.0
 11
215.126108
 21
109.316327
 31
0.0
 11
209.524860
 21
109.379714
 31
0.0
 11
203.923646
 21
109.446255
 31
0.0
  0
SPLINE
  5
221
100
AcDbEntity
  8
decoupe
 62
7
100
AcDbSpline
 70
0
 71
3
 72
10
 73
6
 74
4
 40
0.000000
 40
0.000000
 40
0.000000
 40
0.000000
 40
5.233979
 40
10.467950
 40
15.701927
 40
15.701927
 40
15.701927
 40
15.701927
 10
203.878448
 20
117.539197
 30
0.0
 10
205.623104
 20
117.542841
 30
0.0
 10
209.112414
 20
117.550128
 30
0.0
 10
214.346393
 20
117.549749
 30
0.0
 10
217.835708
 20
117.547494
 30
0.0
 10
219.580367
 20
117.546366
 30
0.0
 11
203.878448
 21
117.539197
 31
0.0
 11
209.112419
 21
117.548243
 31
0.0
 11
214.346390
 21
117.549249
 31
0.0
 11
219.580367
 21
117.546366
 31
0.0
  0
SPLINE
  5
222
100
AcDbEntity
  8
decoupe
 62
7
100
AcDbSpline
 70
0
 71
3
 72
10
 73
6
 74
4
 40
0.000000
 40
0.000000
 40
0.000000
 40
0.000000
 40
1.933296
 40
3.866591
 40
5.799887
 40
5.799887
 40
5.799887
 40
5.799887
 10
219.580367
 20
117.546366
 30
0.0
 10
219.580367
 20
118.190798
 30
0.0
 10
219.580367
 20
119.479661
 30
0.0
 10
219.580367
 20
121.412957
 30
0.0
 10
219.580367
 20
122.701821
 30
0.0
 10
219.580367
 20
123.346253
 30
0.0
 11
219.580367
 21
117.546366
 31
0.0
 11
219.580367
 21
119.479661
 31
0.0
 11
219.580367
 21
121.412957
 31
0.0
 11
219.580367
 21
123.346253
 31
0.0
  0
LINE
  5
223
100
AcDbEntity
  8
decoupe
 62
7
100
AcDbLine
 10
203.884510
 20
123.453740
 30
0.0
 11
203.888913
 21
129.885872
 31
0.0
  0
SPLINE
  5
224
100
AcDbEntity
  8
decoupe
 62
7
100
AcDbSpline
 70
0
 71
3
 72
10
 73
6
 74
4
 40
0.000000
 40
0.000000
 40
0.000000
 40
0.000000
 40
5.232115
 40
10.464187
 40
15.696303
 40
15.696303
 40
15.696303
 40
15.696303
 10
219.580367
 20
123.346253
 30
0.0
 10
217.836457
 20
123.367949
 30
0.0
 10
214.348651
 20
123.411341
 30
0.0
 10
209.116574
 20
123.435570
 30
0.0
 10
205.628536
 20
123.447683
 30
0.0
 10
203.884510
 20
123.453740
 30
0.0
 11
219.580367
 21
123.346253
 31
0.0
 11
214.348576
 21
123.404531
 31
0.0
 11
209.116591
 21
123.434560
 31
0.0
 11
203.884510
 21
123.453740
 31
0.0
  0
SPLINE
  5
225
100
AcDbEntity
  8
decoupe
 62
7
100
AcDbSpline
 70
0
 71
3
 72
10
 73
6
 74
4
 40
0.000000
 40
0.000000
 40
0.000000
 40
0.000000
 40
5.612998
 40
11.225888
 40
16.838857
 40
16.838857
 40
16.838857
 40
16.838857
 10
203.888913
 20
129.885872
 30
0.0
 10
205.759918
 20
129.884802
 30
0.0
 10
209.501894
 20
129.882661
 30
0.0
 10
215.114745
 20
129.922108
 30
0.0
 10
218.856531
 20
129.957116
 30
0.0
 10
220.727437
 20
129.974620
 30
0.0
 11
203.888913
 21
129.885872
 31
0.0
 11
209.501910
 21
129.889771
 31
0.0
 11
215.114694
 21
129.924286
 31
0.0
 11
220.727437
 21
129.974620
 31
0.0
  0
SPLINE
  5
226
100
AcDbEntity
  8
decoupe
 62
7
100
AcDbSpline
 70
0
 71
3
 72
10
 73
6
 74
4
 40
0.000000
 40
0.000000
 40
0.000000
 40
0.000000
 40
1.945790
 40
3.891581
 40
5.837372
 40
5.837372
 40
5.837372
 40
5.837372
 10
220.727437
 20
129.974620
 30
0.0
 10
220.727437
 20
130.623216
 30
0.0
 10
220.727437
 20
131.920410
 30
0.0
 10
220.727437
 20
133.866201
 30
0.0
 10
220.727437
 20
135.163394
 30
0.0
 10
220.727437
 20
135.811991
 30
0.0
 11
220.727437
 21
129.974620
 31
0.0
 11
220.727437
 21
131.920410
 31
0.0
 11
220.727437
 21
133.866201
 31
0.0
 11
220.727437
 21
135.811991
 31
0.0
  0
LINE
  5
227
100
AcDbEntity
  8
decoupe
 62
7
100
AcDbLine
 10
196.350501
 20
135.774501
 30
0.0
 11
196.350501
 21
135.774501
 31
0.0
  0
SPLINE
  5
228
100
AcDbEntity
  8
decoupe
 62
7
100
AcDbSpline
 70
0
 71
3
 72
10
 73
6
 74
4
 40
0.000000
 40
0.000000
 40
0.000000
 40
0.000000
 40
8.125664
 40
16.251315
 40
24.376973
 40
24.376973
 40
24.376973
 40
24.376973
 10
220.727437
 20
135.811991
 30
0.0
 10
218.018892
 20
135.804701
 30
0.0
 10
212.601806
 20
135.790122
 30
0.0
 10
204.476156
 20
135.777179
 30
0.0
 10
199.059053
 20
135.775393
 30
0.0
 10
196.350501
 20
135.774501
 30
0.0
 11
220.727437
 21
135.811991
 31
0.0
 11
212.601799
 21
135.791610
 31
0.0
 11
204.476157
 21
135.778890
 31
0.0
 11
196.350501
 21
135.774501
 31
0.0
  0
LINE
  5
229
100
AcDbEntity
  8
decoupe
 62
7
100
AcDbLine
 10
168.012451
 20
103.346188
 30
0.0
 11
192.397665
 21
103.461160
 31
0.0
  0
SPLINE
  5
22a
100
AcDbEntity
  8
decoupe
 62
7
100
AcDbSpline
 70
0
 71
3
 72
10
 73
6
 74
4
 40
0.000000
 40
0.000000
 40
0.000000
 40
0.000000
 40
10.809596
 40
21.618993
 40
32.428556
 40
32.428556
 40
32.428556
 40
32.428556
 10
168.020721
 20
135.774501
 30
0.0
 10
167.995516
 20
132.171372
 30
0.0
 10
167.945108
 20
124.965180
 30
0.0
 10
167.968127
 20
114.155589
 30
0.0
 10
167.997676
 20
106.949340
 30
0.0
 10
168.012451
 20
103.346188
 30
0.0
 11
168.020721
 21
135.774501
 31
0.0
 11
167.961547
 21
124.965067
 31
0.0
 11
167.971677
 21
114.155675
 31
0.0
 11
168.012451
 21
103.346188
 31
0.0
  0
SPLINE
  5
22b
100
AcDbEntity
  8
decoupe
 62
7
100
AcDbSpline
 70
0
 71
3
 72
10
 73
6
 74
4
 40
0.000000
 40
0.000000
 40
0.000000
 40
0.000000
 40
1.933296
 40
3.866591
 40
5.799887
 40
5.799887
 40
5.799887
 40
5.799887
 10
192.397665
 20
103.461160
 30
0.0
 10
192.397665
 20
104.105592
 30
0.0
 10
192.397665
 20
105.394455
 30
0.0
 10
192.397665
 20
107.327751
 30
0.0
 10
192.397665
 20
108.616615
 30
0.0
 10
192.397665
 20
109.261047
 30
0.0
 11
192.397665
 21
103.461160
 31
0.0
 11
192.397665
 21
105.394455
 31
0.0
 11
192.397665
 21
107.327751
 31
0.0
 11
192.397665
 21
109.261047
 31
0.0
  0
LINE
  5
22c
100
AcDbEntity
  8
decoupe
 62
7
100
AcDbLine
 10
175.593866
 20
109.446255
 30
0.0
 11
175.548668
 21
117.539197
 31
0.0
  0
SPLINE
  5
22d
100
AcDbEntity
  8
decoupe
 62
7
100
AcDbSpline
 70
0
 71
3
 72
10
 73
6
 74
4
 40
0.000000
 40
0.000000
 40
0.000000
 40
0.000000
 40
5.601610
 40
11.203216
 40
16.804826
 40
16.804826
 40
16.804826
 40
16.804826
 10
192.397665
 20
109.261047
 30
0.0
 10
190.530546
 20
109.278823
 30
0.0
 10
186.796309
 20
109.314376
 30
0.0
 10
181.195075
 20
109.379413
 30
0.0
 10
177.460936
 20
109.423974
 30
0.0
 10
175.593866
 20
109.446255
 30
0.0
 11
192.397665
 21
109.261047
 31
0.0
 11
186.796328
 21
109.316327
 31
0.0
 11
181.195081
 21
109.379714
 31
0.0
 11
175.593866
 21
109.446255
 31
0.0
  0
SPLINE
  5
22e
100
AcDbEntity
  8
decoupe
 62
7
100
AcDbSpline
 70
0
 71
3
 72
10
 73
6
 74
4
 40
0.000000
 40
0.000000
 40
0.000000
 40
0.000000
 40
5.233979
 40
10.467950
 40
15.701927
 40
15.701927
 40
15.701927
 40
15.701927
 10
175.548668
 20
117.539197
 30
0.0
 10
177.293324
 20
117.542841
 30
0.0
 10
180.782635
 20
117.550128
 30
0.0
 10
186.016613
 20
117.549749
 30
0.0
 10
189.505928
 20
117.547494
 30
0.0
 10
191.250587
 20
117.546366
 30
0.0
 11
175.548668
 21
117.539197
 31
0.0
 11
180.782639
 21
117.548243
 31
0.0
 11
186.016610
 21
117.549249
 31
0.0
 11
191.250587
 21
117.546366
 31
0.0
  0
SPLINE
  5
22f
100
AcDbEntity
  8
decoupe
 62
7
100
AcDbSpline
 70
0
 71
3
 72
10
 73
6
 74
4
 40
0.000000
 40
0.000000
 40
0.000000
 40
0.000000
 40
1.933296
 40
3.866591
 40
5.799887
 40
5.799887
 40
5.799887
 40
5.799887
 10
191.250587
 20
117.546366
 30
0.0
 10
191.250587
 20
118.190798
 30
0.0
 10
191.250587
 20
119.479661
 30
0.0
 10
191.250587
 20
121.412957
 30
0.0
 10
191.250587
 20
122.701821
 30
0.0
 10
191.250587
 20
123.346253
 30
0.0
 11
191.250587
 21
117.546366
 31
0.0
 11
191.250587
 21
119.479661
 31
0.0
 11
191.250587
 21
121.412957
 31
0.0
 11
191.250587
 21
123.346253
 31
0.0
  0
LINE
  5
230
100
AcDbEntity
  8
decoupe
 62
7
100
AcDbLine
 10
175.554730
 20
123.453740
 30
0.0
 11
175.559133
 21
129.885872
 31
0.0
  0
SPLINE
  5
231
100
AcDbEntity
  8
decoupe
 62
7
100
AcDbSpline
 70
0
 71
3
 72
10
 73
6
 74
4
 40
0.000000
 40
0.000000
 40
0.000000
 40
0.000000
 40
5.232115
 40
10.464187
 40
15.696303
 40
15.696303
 40
15.696303
 40
15.696303
 10
191.250587
 20
123.346253
 30
0.0
 10
189.506677
 20
123.367949
 30
0.0
 10
186.018871
 20
123.411341
 30
0.0
 10
180.786794
 20
123.435570
 30
0.0
 10
177.298756
 20
123.447683
 30
0.0
 10
175.554730
 20
123.453740
 30
0.0
 11
191.250587
 21
123.346253
 31
0.0
 11
186.018796
 21
123.404531
 31
0.0
 11
180.786811
 21
123.434560
 31
0.0
 11
175.554730
 21
123.453740
 31
0.0
  0
SPLINE
  5
232
100
AcDbEntity
  8
decoupe
 62
7
100
AcDbSpline
 70
0
 71
3
 72
10
 73
6
 74
4
 40
0.000000
 40
0.000000
 40
0.000000
 40
0.000000
 40
5.612998
 40
11.225888
 40
16.838857
 40
16.838857
 40
16.838857
 40
16.838857
 10
175.559133
 20
129.885872
 30
0.0
 10
177.430139
 20
129.884802
 30
0.0
 10
181.172114
 20
129.882661
 30
0.0
 10
186.784965
 20
129.922108
 30
0.0
 10
190.526751
 20
129.957116
 30
0.0
 10
192.397657
 20
129.974620
 30
0.0
 11
175.559133
 21
129.885872
 31
0.0
 11
181.172130
 21
129.889771
 31
0.0
 11
186.784914
 21
129.924286
 31
0.0
 11
192.397657
 21
129.974620
 31
0.0
  0
SPLINE
  5
233
100
AcDbEntity
  8
decoupe
 62
7
100
AcDbSpline
 70
0
 71
3
 72
10
 73
6
 74
4
 40
0.000000
 40
0.000000
 40
0.000000
 40
0.000000
 40
1.945790
 40
3.891581
 40
5.837372
 40
5.837372
 40
5.837372
 40
5.837372
 10
192.397657
 20
129.974620
 30
0.0
 10
192.397657
 20
130.623216
 30
0.0
 10
192.397657
 20
131.920410
 30
0.0
 10
192.397657
 20
133.866201
 30
0.0
 10
192.397657
 20
135.163394
 30
0.0
 10
192.397657
 20
135.811991
 30
0.0
 11
192.397657
 21
129.974620
 31
0.0
 11
192.397657
 21
131.920410
 31
0.0
 11
192.397657
 21
133.866201
 31
0.0
 11
192.397657
 21
135.811991
 31
0.0
  0
LINE
  5
234
100
AcDbEntity
  8
decoupe
 62
7
100
AcDbLine
 10
168.020721
 20
135.774501
 30
0.0
 11
168.020721
 21
135.774501
 31
0.0
  0
SPLINE
  5
235
100
AcDbEntity
  8
decoupe
 62
7
100
AcDbSpline
 70
0
 71
3
 72
10
 73
6
 74
4
 40
0.000000
 40
0.000000
 40
0.000000
 40
0.000000
 40
8.125664
 40
16.251315
 40
24.376973
 40
24.376973
 40
24.376973
 40
24.376973
 10
192.397657
 20
135.811991
 30
0.0
 10
189.689112
 20
135.804701
 30
0.0
 10
184.272026
 20
135.790122
 30
0.0
 10
176.146376
 20
135.777179
 30
0.0
 10
170.729273
 20
135.775393
 30
0.0
 10
168.020721
 20
135.774501
 30
0.0
 11
192.397657
 21
135.811991
 31
0.0
 11
184.272019
 21
135.791610
 31
0.0
 11
176.146377
 21
135.778890
 31
0.0
 11
168.020721
 21
135.774501
 31
0.0
  0
LINE
  5
236
100
AcDbEntity
  8
decoupe
 62
7
100
AcDbLine
 10
123.327174
 20
135.758634
 30
0.0
 11
123.397129
 21
103.448220
 31
0.0
  0
SPLINE
  5
237
100
AcDbEntity
  8
decoupe
 62
7
100
AcDbSpline
 70
0
 71
3
 72
10
 73
6
 74
4
 40
0.000000
 40
0.000000
 40
0.000000
 40
0.000000
 40
2.485468
 40
4.970936
 40
7.456404
 40
7.456404
 40
7.456404
 40
7.456404
 10
130.783578
 20
135.758634
 30
0.0
 10
129.955089
 20
135.758634
 30
0.0
 10
128.298110
 20
135.758634
 30
0.0
 10
125.812642
 20
135.758634
 30
0.0
 10
124.155664
 20
135.758634
 30
0.0
 10
123.327174
 20
135.758634
 30
0.0
 11
130.783578
 21
135.758634
 31
0.0
 11
128.298110
 21
135.758634
 31
0.0
 11
125.812642
 21
135.758634
 31
0.0
 11
123.327174
 21
135.758634
 31
0.0
  0
SPLINE
  5
238
100
AcDbEntity
  8
decoupe
 62
7
100
AcDbSpline
 70
0
 71
3
 72
10
 73
6
 74
4
 40
0.000000
 40
0.000000
 40
0.000000
 40
0.000000
 40
2.470124
 40
4.956726
 40
7.426373
 40
7.426373
 40
7.426373
 40
7.426373
 10
123.397129
 20
103.448220
 30
0.0
 10
124.220322
 20
103.429573
 30
0.0
 10
125.872199
 20
103.392154
 30
0.0
 10
128.347894
 20
103.400416
 30
0.0
 10
129.999701
 20
103.430419
 30
0.0
 10
130.822779
 20
103.445369
 30
0.0
 11
123.397129
 21
103.448220
 31
0.0
 11
125.866837
 21
103.402941
 31
0.0
 11
128.353437
 21
103.406599
 31
0.0
 11
130.822779
 21
103.445369
 31
0.0
  0
LINE
  5
239
100
AcDbEntity
  8
decoupe
 62
7
100
AcDbLine
 10
130.783578
 20
135.758629
 30
0.0
 11
130.783578
 21
135.758634
 31
0.0
  0
SPLINE
  5
23a
100
AcDbEntity
  8
decoupe
 62
7
100
AcDbSpline
 70
0
 71
3
 72
10
 73
6
 74
4
 40
0.000000
 40
0.000000
 40
0.000000
 40
0.000000
 40
10.771091
 40
21.542194
 40
32.313285
 40
32.313285
 40
32.313285
 40
32.313285
 10
130.822779
 20
103.445369
 30
0.0
 10
130.820359
 20
107.035733
 30
0.0
 10
130.815520
 20
114.216464
 30
0.0
 10
130.790838
 20
124.987534
 30
0.0
 10
130.785998
 20
132.168265
 30
0.0
 10
130.783578
 20
135.758629
 30
0.0
 11
130.822779
 21
103.445369
 31
0.0
 11
130.812616
 21
114.216456
 31
0.0
 11
130.793741
 21
124.987542
 31
0.0
 11
130.783578
 21
135.758629
 31
0.0
  0
ENDSEC
  0
SECTION
  2
OBJECTS
  0
DICTIONARY
  5
C
330
0
100
AcDbDictionary
  3
ACAD_GROUP
350
D
  3
ACAD_MLINESTYLE
350
17
  0
DICTIONARY
  5
D
330
C
100
AcDbDictionary
  0
DICTIONARY
  5
1A
330
C
100
AcDbDictionary
  0
DICTIONARY
  5
17
330
C
100
AcDbDictionary
  3
STANDARD
350
18
  0
DICTIONARY
  5
19
330
C
100
AcDbDictionary
  0
ENDSEC
  0
EOF
