  0
SECTION
  2
HEADER
  9
$ACADVER
  1
AC1014
  9
$HANDSEED
  5
FFFF
  9
$MEASUREMENT
 70
     1
  0
ENDSEC
  0
SECTION
  2
TABLES
  0
TABLE
  2
VPORT
  5
8
330
0
100
AcDbSymbolTable
 70
     4
  0
VPORT
  5
2E
330
8
100
AcDbSymbolTableRecord
100
AcDbViewportTableRecord
  2
*ACTIVE
 70
     0
 10
0.0
 20
0.0
 11
1.0
 21
1.0
 12
210.0
 22
148.5
 13
0.0
 23
0.0
 14
10.0
 24
10.0
 15
10.0
 25
10.0
 16
0.0
 26
0.0
 36
1.0
 17
0.0
 27
0.0
 37
0.0
 40
341.0
 41
1.24
 42
50.0
 43
0.0
 44
0.0
 50
0.0
 51
0.0
 71
     0
 72
   100
 73
     1
 74
     3
 75
     0
 76
     0
 77
     0
 78
     0
  0
ENDTAB
  0
TABLE
  2
LTYPE
  5
5
330
0
100
AcDbSymbolTable
 70
     1
  0
LTYPE
  5
14
330
5
100
AcDbSymbolTableRecord
100
AcDbLinetypeTableRecord
  2
BYBLOCK
 70
     0
  3

 72
    65
 73
     0
 40
0.0
  0
LTYPE
  5
15
330
5
100
AcDbSymbolTableRecord
100
AcDbLinetypeTableRecord
  2
BYLAYER
 70
     0
  3

 72
    65
 73
     0
 40
0.0
  0
LTYPE
  5
16
330
5
100
AcDbSymbolTableRecord
100
AcDbLinetypeTableRecord
  2
CONTINUOUS
 70
     0
  3
Solid line
 72
    65
 73
     0
 40
0.0
  0
ENDTAB
  0
TABLE
  2
LAYER
  5
2
100
AcDbSymbolTable
 70
2
  0
LAYER
  5
50
100
AcDbSymbolTableRecord
100
AcDbLayerTableRecord
  2
0
 70
0
  6
CONTINUOUS
  0
LAYER
  5
51
100
AcDbSymbolTableRecord
100
AcDbLayerTableRecord
  2
decoupe
 70
0
  6
CONTINUOUS
  0
ENDTAB
  0
TABLE
  2
STYLE
  5
3
330
0
100
AcDbSymbolTable
 70
     1
  0
STYLE
  5
11
330
3
100
AcDbSymbolTableRecord
100
AcDbTextStyleTableRecord
  2
STANDARD
 70
     0
 40
0.0
 41
1.0
 50
0.0
 71
     0
 42
2.5
  3
txt
  4

  0
ENDTAB
  0
TABLE
  2
VIEW
  5
6
330
0
100
AcDbSymbolTable
 70
     0
  0
ENDTAB
  0
TABLE
  2
UCS
  5
7
330
0
100
AcDbSymbolTable
 70
     0
  0
ENDTAB
  0
TABLE
  2
APPID
  5
9
330
0
100
AcDbSymbolTable
 70
     2
  0
APPID
  5
12
330
9
100
AcDbSymbolTableRecord
100
AcDbRegAppTableRecord
  2
ACAD
 70
     0
  0
ENDTAB
  0
TABLE
  2
DIMSTYLE
  5
A
330
0
100
AcDbSymbolTable
 70
     1
  0
DIMSTYLE
105
27
330
A
100
AcDbSymbolTableRecord
100
AcDbDimStyleTableRecord
  2
ISO-25
 70
     0
  3

  4

  5

  6

  7

 40
1.0
 41
2.5
 42
0.625
 43
3.75
 44
1.25
 45
0.0
 46
0.0
 47
0.0
 48
0.0
140
2.5
141
2.5
142
0.0
143
0.03937007874016
144
1.0
145
0.0
146
1.0
147
0.625
 71
     0
 72
     0
 73
     0
 74
     0
 75
     0
 76
     0
 77
     1
 78
     8
170
     0
171
     3
172
     1
173
     0
174
     0
175
     0
176
     0
177
     0
178
     0
270
     2
271
     2
272
     2
273
     2
274
     3
340
11
275
     0
280
     0
281
     0
282
     0
283
     0
284
     8
285
     0
286
     0
287
     3
288
     0
  0
ENDTAB
  0
TABLE
  2
BLOCK_RECORD
  5
1
330
0
100
AcDbSymbolTable
 70
     1
  0
BLOCK_RECORD
  5
1F
330
1
100
AcDbSymbolTableRecord
100
AcDbBlockTableRecord
  2
*MODEL_SPACE
  0
BLOCK_RECORD
  5
1B
330
1
100
AcDbSymbolTableRecord
100
AcDbBlockTableRecord
  2
*PAPER_SPACE
  0
ENDTAB
  0
ENDSEC
  0
SECTION
  2
BLOCKS
  0
BLOCK
  5
20
330
1F
100
AcDbEntity
  8
0
100
AcDbBlockBegin
  2
*MODEL_SPACE
 70
     0
 10
0.0
 20
0.0
 30
0.0
  3
*MODEL_SPACE
  1

  0
ENDBLK
  5
21
330
1F
100
AcDbEntity
  8
0
100
AcDbBlockEnd
  0
BLOCK
  5
1C
330
1B
100
AcDbEntity
 67
     1
  8
0
100
AcDbBlockBegin
  2
*PAPER_SPACE
  1

  0
ENDBLK
  5
1D
330
1B
100
AcDbEntity
 67
     1
  8
0
100
AcDbBlockEnd
  0
ENDSEC
  0
SECTION
  2
ENTITIES
  0
LINE
  5
100
100
AcDbEntity
  8
decoupe
 62
7
100
AcDbLine
 10
228.040921
 20
68.268497
 30
0.0
 11
228.040921
 21
84.287036
 31
0.0
  0
LINE
  5
101
100
AcDbEntity
  8
decoupe
 62
7
100
AcDbLine
 10
228.040921
 20
84.287036
 30
0.0
 11
231.769121
 21
84.287036
 31
0.0
  0
LINE
  5
102
100
AcDbEntity
  8
decoupe
 62
7
100
AcDbLine
 10
231.769121
 20
84.287036
 30
0.0
 11
235.497322
 21
84.287036
 31
0.0
  0
LINE
  5
103
100
AcDbEntity
  8
decoupe
 62
7
100
AcDbLine
 10
235.497322
 20
84.287036
 30
0.0
 11
235.571778
 21
68.544677
 31
0.0
  0
LINE
  5
104
100
AcDbEntity
  8
decoupe
 62
7
100
AcDbLine
 10
231.703121
 20
52.172619
 30
0.0
 11
228.040921
 21
52.249959
 31
0.0
  0
LINE
  5
105
100
AcDbEntity
  8
decoupe
 62
7
100
AcDbLine
 10
228.040921
 20
52.249959
 30
0.0
 11
228.040921
 21
68.268497
 31
0.0
  0
LINE
  5
106
100
AcDbEntity
  8
decoupe
 62
7
100
AcDbLine
 10
228.040921
 20
68.268497
 30
0.0
 11
228.040921
 21
68.268497
 31
0.0
  0
SPLINE
  5
107
100
AcDbEntity
  8
decoupe
 62
7
100
AcDbSpline
 70
0
 71
3
 72
13
 73
9
 74
7
 40
0.000000
 40
0.000000
 40
0.000000
 40
0.000000
 40
7.977949
 40
13.760590
 40
16.096730
 40
16.561062
 40
17.755766
 40
19.949527
 40
19.949527
 40
19.949527
 40
19.949527
 10
235.571778
 20
68.544677
 30
0.0
 10
235.691411
 20
65.817213
 30
0.0
 10
235.897759
 20
61.112805
 30
0.0
 10
234.953645
 20
56.321291
 30
0.0
 10
236.148243
 20
52.701021
 30
0.0
 10
234.853108
 20
52.117381
 30
0.0
 10
233.560483
 20
52.184355
 30
0.0
 10
232.433046
 20
52.177231
 30
0.0
 10
231.703121
 20
52.172619
 30
0.0
 11
235.571778
 21
68.544677
 31
0.0
 11
235.590030
 21
60.566749
 31
0.0
 11
235.566314
 21
54.784157
 31
0.0
 11
235.505777
 21
52.448802
 31
0.0
 11
235.088404
 21
52.245322
 31
0.0
 11
233.896839
 21
52.158780
 31
0.0
 11
231.703121
 21
52.172619
 31
0.0
  0
LINE
  5
108
100
AcDbEntity
  8
decoupe
 62
7
100
AcDbLine
 10
192.151198
 20
58.954377
 30
0.0
 11
187.664400
 21
58.878321
 31
0.0
  0
LINE
  5
109
100
AcDbEntity
  8
decoupe
 62
7
100
AcDbLine
 10
187.664400
 20
58.878321
 30
0.0
 11
186.487198
 21
55.564140
 31
0.0
  0
LINE
  5
10a
100
AcDbEntity
  8
decoupe
 62
7
100
AcDbLine
 10
186.487198
 20
55.564140
 30
0.0
 11
185.309998
 21
52.249959
 31
0.0
  0
LINE
  5
10b
100
AcDbEntity
  8
decoupe
 62
7
100
AcDbLine
 10
185.309998
 20
52.249959
 30
0.0
 11
181.317765
 21
52.172814
 31
0.0
  0
SPLINE
  5
10c
100
AcDbEntity
  8
decoupe
 62
7
100
AcDbSpline
 70
0
 71
3
 72
28
 73
24
 74
22
 40
0.000000
 40
0.000000
 40
0.000000
 40
0.000000
 40
4.945301
 40
9.337407
 40
12.225450
 40
14.711239
 40
15.888732
 40
16.249298
 40
19.402431
 40
24.741546
 40
27.724657
 40
28.161777
 40
29.127244
 40
30.421844
 40
31.634919
 40
32.161035
 40
32.432092
 40
33.921462
 40
36.303224
 40
37.890244
 40
38.142814
 40
39.020325
 40
41.658303
 40
41.658303
 40
41.658303
 40
41.658303
 10
197.732907
 20
60.811591
 30
0.0
 10
197.274324
 20
62.397628
 30
0.0
 10
196.408458
 20
65.392283
 30
0.0
 10
195.237528
 20
69.264903
 30
0.0
 10
194.403544
 20
72.487069
 30
0.0
 10
193.611981
 20
74.351135
 30
0.0
 10
193.426118
 20
75.974943
 30
0.0
 10
191.723884
 20
76.286717
 30
0.0
 10
191.788993
 20
71.509902
 30
0.0
 10
191.135290
 20
69.407994
 30
0.0
 10
188.712378
 20
65.224514
 30
0.0
 10
190.250972
 20
64.881085
 30
0.0
 10
191.124296
 20
64.838686
 30
0.0
 10
192.300193
 20
64.818218
 30
0.0
 10
193.283027
 20
64.793474
 30
0.0
 10
193.994611
 20
64.801428
 30
0.0
 10
194.583106
 20
64.271845
 30
0.0
 10
194.819387
 20
62.819963
 30
0.0
 10
195.285864
 20
61.116330
 30
0.0
 10
195.862570
 20
59.777802
 30
0.0
 10
195.629386
 20
58.818517
 30
0.0
 10
193.997117
 20
59.203334
 30
0.0
 10
192.942539
 20
59.061104
 30
0.0
 10
192.151198
 20
58.954377
 30
0.0
 11
197.732907
 21
60.811591
 31
0.0
 11
196.349179
 21
65.559359
 31
0.0
 11
195.120979
 21
69.776244
 31
0.0
 11
194.314205
 21
72.549312
 31
0.0
 11
193.579798
 21
74.924138
 31
0.0
 11
193.102923
 21
76.000743
 31
0.0
 11
192.750886
 21
76.078701
 31
0.0
 11
191.697613
 21
73.106687
 31
0.0
 11
190.248735
 21
67.967923
 31
0.0
 11
189.640616
 21
65.047453
 31
0.0
 11
190.061934
 21
64.930984
 31
0.0
 11
191.023821
 21
64.847913
 31
0.0
 11
192.318033
 21
64.816225
 31
0.0
 11
193.530973
 21
64.798120
 31
0.0
 11
194.051352
 21
64.720643
 31
0.0
 11
194.261184
 21
64.549054
 31
0.0
 11
194.784769
 21
63.154751
 31
0.0
 11
195.426901
 21
60.861182
 31
0.0
 11
195.740333
 21
59.305422
 31
0.0
 11
195.663411
 21
59.064850
 31
0.0
 11
194.788903
 21
58.992313
 31
0.0
 11
192.151198
 21
58.954377
 31
0.0
  0
LINE
  5
10d
100
AcDbEntity
  8
decoupe
 62
7
100
AcDbLine
 10
203.395577
 20
52.172379
 30
0.0
 11
200.229016
 21
52.249959
 31
0.0
  0
LINE
  5
10e
100
AcDbEntity
  8
decoupe
 62
7
100
AcDbLine
 10
200.229016
 20
52.249959
 30
0.0
 11
197.732907
 21
60.811591
 31
0.0
  0
LINE
  5
10f
100
AcDbEntity
  8
decoupe
 62
7
100
AcDbLine
 10
166.400457
 20
68.268497
 30
0.0
 11
166.400457
 21
84.287036
 31
0.0
  0
LINE
  5
110
100
AcDbEntity
  8
decoupe
 62
7
100
AcDbLine
 10
166.400457
 20
84.287036
 30
0.0
 11
170.128661
 21
84.287036
 31
0.0
  0
LINE
  5
111
100
AcDbEntity
  8
decoupe
 62
7
100
AcDbLine
 10
170.128661
 20
84.287036
 30
0.0
 11
173.856862
 21
84.287036
 31
0.0
  0
LINE
  5
112
100
AcDbEntity
  8
decoupe
 62
7
100
AcDbLine
 10
173.856862
 20
84.287036
 30
0.0
 11
173.931315
 21
68.544677
 31
0.0
  0
SPLINE
  5
113
100
AcDbEntity
  8
decoupe
 62
7
100
AcDbSpline
 70
0
 71
3
 72
37
 73
33
 74
31
 40
0.000000
 40
0.000000
 40
0.000000
 40
0.000000
 40
2.043367
 40
3.563650
 40
4.238120
 40
5.461818
 40
8.520152
 40
12.757229
 40
20.185588
 40
25.132665
 40
31.128763
 40
34.189093
 40
36.562114
 40
37.735981
 40
38.367986
 40
39.564285
 40
42.326205
 40
45.093908
 40
46.291999
 40
46.935250
 40
49.208857
 40
54.456911
 40
61.544581
 40
71.207335
 40
75.470598
 40
77.611775
 40
78.774917
 40
79.657595
 40
80.076121
 40
80.617761
 40
81.827955
 40
83.450429
 40
83.450429
 40
83.450429
 40
83.450429
 10
181.317765
 20
52.172814
 30
0.0
 10
180.620424
 20
52.159324
 30
0.0
 10
179.404255
 20
52.135798
 30
0.0
 10
178.133959
 20
52.226670
 30
0.0
 10
176.702449
 20
52.217517
 30
0.0
 10
177.859286
 20
54.369886
 30
0.0
 10
178.274892
 20
56.662704
 30
0.0
 10
180.199148
 20
61.488030
 30
0.0
 10
182.017586
 20
66.586309
 30
0.0
 10
184.146209
 20
72.358539
 30
0.0
 10
185.744611
 20
76.733915
 30
0.0
 10
187.032595
 20
80.326575
 30
0.0
 10
187.904501
 20
82.340144
 30
0.0
 10
188.326565
 20
83.687843
 30
0.0
 10
189.082933
 20
84.424393
 30
0.0
 10
190.715177
 20
84.367056
 30
0.0
 10
192.912784
 20
84.465449
 30
0.0
 10
195.105609
 20
84.367620
 30
0.0
 10
196.751385
 20
84.423892
 30
0.0
 10
197.766877
 20
83.403909
 30
0.0
 10
198.361443
 20
80.666078
 30
0.0
 10
200.290763
 20
76.228531
 30
0.0
 10
202.635643
 20
69.252028
 30
0.0
 10
204.903881
 20
62.661845
 30
0.0
 10
206.757734
 20
57.582835
 30
0.0
 10
206.984562
 20
55.072872
 30
0.0
 10
206.954250
 20
53.647187
 30
0.0
 10
206.871606
 20
52.889032
 30
0.0
 10
206.831098
 20
52.160289
 30
0.0
 10
205.931434
 20
52.235681
 30
0.0
 10
204.914015
 20
52.122899
 30
0.0
 10
203.948562
 20
52.154359
 30
0.0
 10
203.395577
 20
52.172379
 30
0.0
 11
181.317765
 21
52.172814
 31
0.0
 11
179.274411
 21
52.165202
 31
0.0
 11
177.755095
 21
52.219406
 31
0.0
 11
177.088738
 21
52.323701
 31
0.0
 11
177.366526
 21
53.515452
 31
0.0
 11
178.322397
 21
56.420571
 31
0.0
 11
179.749408
 21
60.410116
 31
0.0
 11
182.317743
 21
67.380350
 31
0.0
 11
184.020812
 21
72.025038
 31
0.0
 11
186.073940
 21
77.658674
 31
0.0
 11
187.143269
 21
80.526105
 31
0.0
 11
188.013585
 21
82.733768
 31
0.0
 11
188.496468
 21
83.803716
 31
0.0
 11
188.963409
 21
84.229622
 31
0.0
 11
190.148023
 21
84.396418
 31
0.0
 11
192.909794
 21
84.425124
 31
0.0
 11
195.677349
 21
84.396466
 31
0.0
 11
196.863525
 21
84.227919
 31
0.0
 11
197.339859
 21
83.795625
 31
0.0
 11
198.185558
 21
81.685156
 31
0.0
 11
199.990959
 21
76.757418
 31
0.0
 11
202.365201
 21
70.079241
 31
0.0
 11
205.536591
 21
60.951750
 31
0.0
 11
206.760201
 21
56.867856
 31
0.0
 11
206.962245
 21
54.736233
 31
0.0
 11
206.934830
 21
53.573414
 31
0.0
 11
206.862959
 21
52.693667
 31
0.0
 11
206.762192
 21
52.287452
 31
0.0
 11
206.227489
 21
52.201043
 31
0.0
 11
205.018002
 21
52.159702
 31
0.0
 11
203.395577
 21
52.172379
 31
0.0
  0
LINE
  5
114
100
AcDbEntity
  8
decoupe
 62
7
100
AcDbLine
 10
170.062660
 20
52.172619
 30
0.0
 11
166.400457
 21
52.249959
 31
0.0
  0
LINE
  5
115
100
AcDbEntity
  8
decoupe
 62
7
100
AcDbLine
 10
166.400457
 20
52.249959
 30
0.0
 11
166.400457
 21
68.268497
 31
0.0
  0
LINE
  5
116
100
AcDbEntity
  8
decoupe
 62
7
100
AcDbLine
 10
166.400457
 20
68.268497
 30
0.0
 11
166.400457
 21
68.268497
 31
0.0
  0
SPLINE
  5
117
100
AcDbEntity
  8
decoupe
 62
7
100
AcDbSpline
 70
0
 71
3
 72
13
 73
9
 74
7
 40
0.000000
 40
0.000000
 40
0.000000
 40
0.000000
 40
7.977949
 40
13.760590
 40
16.096730
 40
16.561061
 40
17.755764
 40
19.949525
 40
19.949525
 40
19.949525
 40
19.949525
 10
173.931315
 20
68.544677
 30
0.0
 10
174.050948
 20
65.817213
 30
0.0
 10
174.257295
 20
61.112806
 30
0.0
 10
173.313182
 20
56.321291
 30
0.0
 10
174.507780
 20
52.701022
 30
0.0
 10
173.212646
 20
52.117381
 30
0.0
 10
171.920021
 20
52.184355
 30
0.0
 10
170.792586
 20
52.177231
 30
0.0
 10
170.062660
 20
52.172619
 30
0.0
 11
173.931315
 21
68.544677
 31
0.0
 11
173.949567
 21
60.566749
 31
0.0
 11
173.925851
 21
54.784157
 31
0.0
 11
173.865314
 21
52.448802
 31
0.0
 11
173.447941
 21
52.245322
 31
0.0
 11
172.256378
 21
52.158780
 31
0.0
 11
170.062660
 21
52.172619
 31
0.0
  0
LINE
  5
118
100
AcDbEntity
  8
decoupe
 62
7
100
AcDbLine
 10
161.543368
 20
84.649917
 30
0.0
 11
163.837645
 21
84.563216
 31
0.0
  0
LINE
  5
119
100
AcDbEntity
  8
decoupe
 62
7
100
AcDbLine
 10
163.837645
 20
84.563216
 30
0.0
 11
163.837645
 21
81.801400
 31
0.0
  0
LINE
  5
11a
100
AcDbEntity
  8
decoupe
 62
7
100
AcDbLine
 10
163.837645
 20
81.801400
 30
0.0
 11
163.837645
 21
79.039582
 31
0.0
  0
LINE
  5
11b
100
AcDbEntity
  8
decoupe
 62
7
100
AcDbLine
 10
163.837645
 20
79.039582
 30
0.0
 11
160.683013
 21
78.873982
 31
0.0
  0
SPLINE
  5
11c
100
AcDbEntity
  8
decoupe
 62
7
100
AcDbSpline
 70
0
 71
3
 72
28
 73
24
 74
22
 40
0.000000
 40
0.000000
 40
0.000000
 40
0.000000
 40
0.224859
 40
0.663612
 40
1.241805
 40
2.829329
 40
4.976521
 40
8.216972
 40
10.808381
 40
12.638229
 40
14.306606
 40
14.909275
 40
15.512267
 40
16.763471
 40
19.186554
 40
21.511906
 40
24.212479
 40
27.923594
 40
31.211916
 40
34.959068
 40
37.320613
 40
40.625956
 40
44.045941
 40
44.045941
 40
44.045941
 40
44.045941
 10
145.256724
 20
52.284156
 30
0.0
 10
145.245699
 20
52.359165
 30
0.0
 10
145.213161
 20
52.580533
 30
0.0
 10
145.375587
 20
52.978426
 30
0.0
 10
145.732472
 20
53.759539
 30
0.0
 10
146.319533
 20
55.083737
 30
0.0
 10
146.835935
 20
57.357036
 30
0.0
 10
147.311894
 20
59.974067
 30
0.0
 10
147.751714
 20
62.483799
 30
0.0
 10
148.364048
 20
64.449574
 30
0.0
 10
149.018422
 20
65.607238
 30
0.0
 10
149.615937
 20
66.448748
 30
0.0
 10
149.280955
 20
67.281062
 30
0.0
 10
148.419456
 20
68.372571
 30
0.0
 10
147.393056
 20
70.136160
 30
0.0
 10
146.786971
 20
72.571925
 30
0.0
 10
146.780107
 20
75.490407
 30
0.0
 10
147.259758
 20
78.762290
 30
0.0
 10
149.372590
 20
81.785546
 30
0.0
 10
152.078552
 20
83.543093
 30
0.0
 10
155.144644
 20
84.287639
 30
0.0
 10
158.159365
 20
84.639221
 30
0.0
 10
160.402620
 20
84.646311
 30
0.0
 10
161.543368
 20
84.649917
 30
0.0
 11
145.256724
 21
52.284156
 31
0.0
 11
145.237350
 21
52.508179
 31
0.0
 11
145.358528
 21
52.929866
 31
0.0
 11
145.594025
 21
53.457927
 31
0.0
 11
146.201458
 21
54.924643
 31
0.0
 11
146.742688
 21
57.002504
 31
0.0
 11
147.346566
 21
60.186189
 31
0.0
 11
147.860969
 21
62.726030
 31
0.0
 11
148.436771
 21
64.462923
 31
0.0
 11
149.247713
 21
65.920953
 31
0.0
 11
149.512164
 21
66.462503
 31
0.0
 11
149.356576
 21
67.045076
 31
0.0
 11
148.668413
 21
68.090037
 31
0.0
 11
147.487264
 21
70.205744
 31
0.0
 11
146.904193
 21
72.456809
 31
0.0
 11
146.838041
 21
75.156571
 31
0.0
 11
147.570215
 21
78.794743
 31
0.0
 11
149.422788
 21
81.511549
 31
0.0
 11
152.564284
 21
83.554133
 31
0.0
 11
154.843232
 21
84.173239
 31
0.0
 11
158.124233
 21
84.573644
 31
0.0
 11
161.543368
 21
84.649917
 31
0.0
  0
LINE
  5
11d
100
AcDbEntity
  8
decoupe
 62
7
100
AcDbLine
 10
160.969799
 20
69.994103
 30
0.0
 11
163.837645
 21
69.925588
 31
0.0
  0
LINE
  5
11e
100
AcDbEntity
  8
decoupe
 62
7
100
AcDbLine
 10
163.837645
 20
69.925588
 30
0.0
 11
163.837645
 21
67.025678
 31
0.0
  0
LINE
  5
11f
100
AcDbEntity
  8
decoupe
 62
7
100
AcDbLine
 10
163.837645
 20
67.025678
 30
0.0
 11
163.837645
 21
64.125772
 31
0.0
  0
LINE
  5
120
100
AcDbEntity
  8
decoupe
 62
7
100
AcDbLine
 10
163.837645
 20
64.125772
 30
0.0
 11
160.737556
 21
63.956461
 31
0.0
  0
SPLINE
  5
121
100
AcDbEntity
  8
decoupe
 62
7
100
AcDbSpline
 70
0
 71
3
 72
16
 73
12
 74
10
 40
0.000000
 40
0.000000
 40
0.000000
 40
0.000000
 40
3.267605
 40
5.181483
 40
7.166943
 40
8.896968
 40
10.681473
 40
12.438926
 40
13.748989
 40
15.192528
 40
17.852711
 40
17.852711
 40
17.852711
 40
17.852711
 10
160.683013
 20
78.873982
 30
0.0
 10
159.595838
 20
78.842258
 30
0.0
 10
157.871889
 20
78.791953
 30
0.0
 10
155.526021
 20
77.888983
 30
0.0
 10
154.592884
 20
76.134538
 30
0.0
 10
154.231043
 20
74.317829
 30
0.0
 10
154.666919
 20
72.543763
 30
0.0
 10
155.671005
 20
71.242737
 30
0.0
 10
156.903213
 20
70.318015
 30
0.0
 10
158.723379
 20
70.019278
 30
0.0
 10
160.086302
 20
70.004004
 30
0.0
 10
160.969799
 20
69.994103
 30
0.0
 11
160.683013
 21
78.873982
 31
0.0
 11
157.432604
 21
78.539193
 31
0.0
 11
155.701212
 21
77.723590
 31
0.0
 11
154.656612
 21
76.035140
 31
0.0
 11
154.361063
 21
74.330547
 31
0.0
 11
154.780877
 21
72.596126
 31
0.0
 11
155.830256
 21
71.186359
 31
0.0
 11
156.906056
 21
70.438749
 31
0.0
 11
158.312255
 21
70.112543
 31
0.0
 11
160.969799
 21
69.994103
 31
0.0
  0
LINE
  5
122
100
AcDbEntity
  8
decoupe
 62
7
100
AcDbLine
 10
145.256724
 20
52.284156
 30
0.0
 11
145.256724
 21
52.284156
 31
0.0
  0
LINE
  5
123
100
AcDbEntity
  8
decoupe
 62
7
100
AcDbLine
 10
85.582032
 20
57.773742
 30
0.0
 11
85.665268
 21
55.309810
 31
0.0
  0
SPLINE
  5
124
100
AcDbEntity
  8
decoupe
 62
7
100
AcDbSpline
 70
0
 71
3
 72
19
 73
15
 74
13
 40
0.000000
 40
0.000000
 40
0.000000
 40
0.000000
 40
3.490455
 40
5.694006
 40
9.203749
 40
12.332893
 40
14.119479
 40
15.297209
 40
16.049322
 40
17.147289
 40
19.619131
 40
21.414926
 40
22.743867
 40
23.322377
 40
23.322377
 40
23.322377
 40
23.322377
 10
160.737556
 20
63.956461
 30
0.0
 10
159.530726
 20
63.980128
 30
0.0
 10
157.562015
 20
64.018735
 30
0.0
 10
155.066989
 20
61.820617
 30
0.0
 10
154.852116
 20
58.713424
 30
0.0
 10
154.274360
 20
56.011769
 30
0.0
 10
153.809842
 20
54.006309
 30
0.0
 10
153.185387
 20
52.935082
 30
0.0
 10
152.455727
 20
52.171776
 30
0.0
 10
150.928217
 20
52.124452
 30
0.0
 10
149.185957
 20
52.098492
 30
0.0
 10
147.311579
 20
52.136486
 30
0.0
 10
146.074765
 20
52.146635
 30
0.0
 10
145.447091
 20
52.252154
 30
0.0
 10
145.256724
 20
52.284156
 30
0.0
 11
160.737556
 21
63.956461
 31
0.0
 11
157.276821
 21
63.501940
 31
0.0
 11
155.630823
 21
62.036904
 31
0.0
 11
154.760721
 21
58.636724
 31
0.0
 11
154.167040
 21
55.564415
 31
0.0
 11
153.664587
 21
53.849939
 31
0.0
 11
153.061433
 21
52.838378
 31
0.0
 11
152.504692
 21
52.332698
 31
0.0
 11
151.423490
 21
52.141560
 31
0.0
 11
148.951826
 21
52.111868
 31
0.0
 11
147.156187
 21
52.135478
 31
0.0
 11
145.828687
 21
52.197374
 31
0.0
 11
145.256724
 21
52.284156
 31
0.0
  0
LINE
  5
125
100
AcDbEntity
  8
decoupe
 62
7
100
AcDbLine
 10
73.759568
 20
52.177803
 30
0.0
 11
62.065535
 21
52.250013
 31
0.0
  0
LINE
  5
126
100
AcDbEntity
  8
decoupe
 62
7
100
AcDbLine
 10
62.065535
 20
52.250013
 30
0.0
 11
62.065535
 21
55.011602
 31
0.0
  0
LINE
  5
127
100
AcDbEntity
  8
decoupe
 62
7
100
AcDbLine
 10
62.065535
 20
55.011602
 30
0.0
 11
62.065535
 21
57.773742
 31
0.0
  0
SPLINE
  5
128
100
AcDbEntity
  8
decoupe
 62
7
100
AcDbSpline
 70
0
 71
3
 72
13
 73
9
 74
7
 40
0.000000
 40
0.000000
 40
0.000000
 40
0.000000
 40
1.291886
 40
2.310193
 40
2.838000
 40
3.861514
 40
7.412201
 40
14.705933
 40
14.705933
 40
14.705933
 40
14.705933
 10
85.665268
 20
55.309810
 30
0.0
 10
85.680118
 20
54.873659
 30
0.0
 10
85.706673
 20
54.093720
 30
0.0
 10
85.650270
 20
53.201396
 30
0.0
 10
85.689875
 20
52.212951
 30
0.0
 10
83.469742
 20
52.306778
 30
0.0
 10
80.036446
 20
52.044807
 30
0.0
 10
76.283632
 20
52.124323
 30
0.0
 10
73.759568
 20
52.177803
 30
0.0
 11
85.665268
 21
55.309810
 31
0.0
 11
85.687155
 21
54.018109
 31
0.0
 11
85.664188
 21
53.000061
 31
0.0
 11
85.601325
 21
52.476011
 31
0.0
 11
84.602843
 21
52.251036
 31
0.0
 11
81.053282
 21
52.161617
 31
0.0
 11
73.759568
 21
52.177803
 31
0.0
  0
LINE
  5
129
100
AcDbEntity
  8
decoupe
 62
7
100
AcDbLine
 10
78.205477
 20
57.811396
 30
0.0
 11
62.098019
 21
77.992673
 31
0.0
  0
LINE
  5
12a
100
AcDbEntity
  8
decoupe
 62
7
100
AcDbLine
 10
62.098019
 20
77.992673
 30
0.0
 11
62.065535
 21
78.763467
 31
0.0
  0
LINE
  5
12b
100
AcDbEntity
  8
decoupe
 62
7
100
AcDbLine
 10
62.065535
 20
78.763467
 30
0.0
 11
62.065535
 21
81.525057
 31
0.0
  0
LINE
  5
12c
100
AcDbEntity
  8
decoupe
 62
7
100
AcDbLine
 10
62.065535
 20
81.525057
 30
0.0
 11
62.065535
 21
84.287197
 31
0.0
  0
LINE
  5
12d
100
AcDbEntity
  8
decoupe
 62
7
100
AcDbLine
 10
62.065535
 20
84.287197
 30
0.0
 11
73.680193
 21
84.287197
 31
0.0
  0
LINE
  5
12e
100
AcDbEntity
  8
decoupe
 62
7
100
AcDbLine
 10
73.680193
 20
84.287197
 30
0.0
 11
85.295401
 21
84.287197
 31
0.0
  0
LINE
  5
12f
100
AcDbEntity
  8
decoupe
 62
7
100
AcDbLine
 10
85.295401
 20
84.287197
 30
0.0
 11
85.378634
 21
81.823264
 31
0.0
  0
SPLINE
  5
130
100
AcDbEntity
  8
decoupe
 62
7
100
AcDbSpline
 70
0
 71
3
 72
10
 73
6
 74
4
 40
0.000000
 40
0.000000
 40
0.000000
 40
0.000000
 40
5.380078
 40
10.760041
 40
16.140053
 40
16.140053
 40
16.140053
 40
16.140053
 10
62.065535
 20
57.773742
 30
0.0
 10
63.858892
 20
57.771173
 30
0.0
 10
67.445568
 20
57.766034
 30
0.0
 10
72.825603
 20
57.773810
 30
0.0
 10
76.412180
 20
57.798867
 30
0.0
 10
78.205477
 20
57.811396
 30
0.0
 11
62.065535
 21
57.773742
 31
0.0
 11
67.445610
 21
57.768615
 31
0.0
 11
72.825563
 21
57.778778
 31
0.0
 11
78.205477
 21
57.811396
 31
0.0
  0
LINE
  5
131
100
AcDbEntity
  8
decoupe
 62
7
100
AcDbLine
 10
73.616253
 20
78.691258
 30
0.0
 11
69.076573
 21
78.719638
 31
0.0
  0
SPLINE
  5
132
100
AcDbEntity
  8
decoupe
 62
7
100
AcDbSpline
 70
0
 71
3
 72
13
 73
9
 74
7
 40
0.000000
 40
0.000000
 40
0.000000
 40
0.000000
 40
1.291880
 40
2.310184
 40
2.837999
 40
3.851124
 40
7.359338
 40
14.562890
 40
14.562890
 40
14.562890
 40
14.562890
 10
85.378634
 20
81.823264
 30
0.0
 10
85.393525
 20
81.387094
 30
0.0
 10
85.420152
 20
80.607121
 30
0.0
 10
85.363338
 20
79.714997
 30
0.0
 10
85.403780
 20
78.730053
 30
0.0
 10
83.209754
 20
78.815439
 30
0.0
 10
79.814508
 20
78.562133
 30
0.0
 10
76.108503
 20
78.639338
 30
0.0
 10
73.616253
 20
78.691258
 30
0.0
 11
85.378634
 21
81.823264
 31
0.0
 11
85.400516
 21
80.531569
 31
0.0
 11
85.377543
 21
79.513525
 31
0.0
 11
85.314694
 21
78.989465
 31
0.0
 11
84.326861
 21
78.764501
 31
0.0
 11
80.819787
 21
78.675072
 31
0.0
 11
73.616253
 21
78.691258
 31
0.0
  0
SPLINE
  5
133
100
AcDbEntity
  8
decoupe
 62
7
100
AcDbSpline
 70
0
 71
3
 72
10
 73
6
 74
4
 40
0.000000
 40
0.000000
 40
0.000000
 40
0.000000
 40
4.426695
 40
8.719517
 40
12.817697
 40
12.817697
 40
12.817697
 40
12.817697
 10
69.076573
 20
78.719638
 30
0.0
 10
70.012764
 20
77.578921
 30
0.0
 10
71.856834
 20
75.331984
 30
0.0
 10
74.689262
 20
72.132455
 30
0.0
 10
76.499625
 20
70.000334
 30
0.0
 10
77.383809
 20
68.959002
 30
0.0
 11
69.076573
 21
78.719638
 31
0.0
 11
71.906475
 21
75.315627
 31
0.0
 11
74.720793
 21
72.074034
 31
0.0
 11
77.383809
 21
68.959002
 31
0.0
  0
LINE
  5
134
100
AcDbEntity
  8
decoupe
 62
7
100
AcDbLine
 10
85.501308
 20
58.650392
 30
0.0
 11
85.582032
 21
57.773742
 31
0.0
  0
LINE
  5
135
100
AcDbEntity
  8
decoupe
 62
7
100
AcDbLine
 10
39.104550
 20
55.011775
 30
0.0
 11
39.104550
 21
57.773593
 31
0.0
  0
LINE
  5
136
100
AcDbEntity
  8
decoupe
 62
7
100
AcDbLine
 10
39.104550
 20
57.773593
 30
0.0
 11
42.689359
 21
57.773593
 31
0.0
  0
LINE
  5
137
100
AcDbEntity
  8
decoupe
 62
7
100
AcDbLine
 10
42.689359
 20
57.773593
 30
0.0
 11
46.274169
 21
57.773593
 31
0.0
  0
LINE
  5
138
100
AcDbEntity
  8
decoupe
 62
7
100
AcDbLine
 10
46.274169
 20
57.773593
 30
0.0
 11
46.357738
 21
55.309815
 31
0.0
  0
SPLINE
  5
139
100
AcDbEntity
  8
decoupe
 62
7
100
AcDbSpline
 70
0
 71
3
 72
10
 73
6
 74
4
 40
0.000000
 40
0.000000
 40
0.000000
 40
0.000000
 40
4.323536
 40
8.808294
 40
13.125217
 40
13.125217
 40
13.125217
 40
13.125217
 10
77.383809
 20
68.959002
 30
0.0
 10
78.286626
 20
67.835780
 30
0.0
 10
80.125924
 20
65.547452
 30
0.0
 10
82.973377
 20
62.221435
 30
0.0
 10
84.669445
 20
59.825511
 30
0.0
 10
85.501308
 20
58.650392
 30
0.0
 11
77.383809
 21
68.959002
 31
0.0
 11
80.109514
 21
65.602888
 31
0.0
 11
82.954380
 21
62.135932
 31
0.0
 11
85.501308
 21
58.650392
 31
0.0
  0
LINE
  5
13a
100
AcDbEntity
  8
decoupe
 62
7
100
AcDbLine
 10
42.623255
 20
52.172368
 30
0.0
 11
39.104550
 21
52.249959
 31
0.0
  0
LINE
  5
13b
100
AcDbEntity
  8
decoupe
 62
7
100
AcDbLine
 10
39.104550
 20
52.249959
 30
0.0
 11
39.104550
 21
55.011775
 31
0.0
  0
LINE
  5
13c
100
AcDbEntity
  8
decoupe
 62
7
100
AcDbLine
 10
39.104550
 20
55.011775
 30
0.0
 11
39.104550
 21
55.011775
 31
0.0
  0
LINE
  5
13d
100
AcDbEntity
  8
decoupe
 62
7
100
AcDbLine
 10
39.104550
 20
71.996949
 30
0.0
 11
39.104550
 21
84.287036
 31
0.0
  0
LINE
  5
13e
100
AcDbEntity
  8
decoupe
 62
7
100
AcDbLine
 10
39.104550
 20
84.287036
 30
0.0
 11
42.689359
 21
84.287036
 31
0.0
  0
LINE
  5
13f
100
AcDbEntity
  8
decoupe
 62
7
100
AcDbLine
 10
42.689359
 20
84.287036
 30
0.0
 11
46.274169
 21
84.287036
 31
0.0
  0
LINE
  5
140
100
AcDbEntity
  8
decoupe
 62
7
100
AcDbLine
 10
46.274169
 20
84.287036
 30
0.0
 11
46.348989
 21
72.273132
 31
0.0
  0
SPLINE
  5
141
100
AcDbEntity
  8
decoupe
 62
7
100
AcDbSpline
 70
0
 71
3
 72
13
 73
9
 74
7
 40
0.000000
 40
0.000000
 40
0.000000
 40
0.000000
 40
1.292670
 40
2.313029
 40
2.843736
 40
3.292468
 40
4.423297
 40
6.574460
 40
6.574460
 40
6.574460
 40
6.574460
 10
46.357738
 20
55.309815
 30
0.0
 10
46.374991
 20
54.873743
 30
0.0
 10
46.405863
 20
54.093461
 30
0.0
 10
46.325154
 20
53.196056
 30
0.0
 10
46.400594
 20
52.433016
 30
0.0
 10
45.657899
 20
52.131765
 30
0.0
 10
44.447931
 20
52.172613
 30
0.0
 10
43.345703
 20
52.172465
 30
0.0
 10
42.623255
 20
52.172368
 30
0.0
 11
46.357738
 21
55.309815
 31
0.0
 11
46.379352
 21
54.017326
 31
0.0
 11
46.355629
 21
52.997243
 31
0.0
 11
46.291633
 21
52.470409
 31
0.0
 11
45.901479
 21
52.248731
 31
0.0
 11
44.774364
 21
52.157157
 31
0.0
 11
42.623255
 21
52.172368
 31
0.0
  0
LINE
  5
142
100
AcDbEntity
  8
decoupe
 62
7
100
AcDbLine
 10
42.623255
 20
59.629274
 30
0.0
 11
39.104550
 21
59.706866
 31
0.0
  0
LINE
  5
143
100
AcDbEntity
  8
decoupe
 62
7
100
AcDbLine
 10
39.104550
 20
59.706866
 30
0.0
 11
39.104550
 21
71.996949
 31
0.0
  0
LINE
  5
144
100
AcDbEntity
  8
decoupe
 62
7
100
AcDbLine
 10
39.104550
 20
71.996949
 30
0.0
 11
39.104550
 21
71.996949
 31
0.0
  0
SPLINE
  5
145
100
AcDbEntity
  8
decoupe
 62
7
100
AcDbSpline
 70
0
 71
3
 72
13
 73
9
 74
7
 40
0.000000
 40
0.000000
 40
0.000000
 40
0.000000
 40
6.099956
 40
10.543221
 40
12.368780
 40
12.822763
 40
13.974315
 40
16.079775
 40
16.079775
 40
16.079775
 40
16.079775
 10
46.348989
 20
72.273132
 30
0.0
 10
46.436449
 20
70.191256
 30
0.0
 10
46.587616
 20
66.592923
 30
0.0
 10
45.909869
 20
62.882164
 30
0.0
 10
46.773674
 20
60.082204
 30
0.0
 10
45.649125
 20
59.579024
 30
0.0
 10
44.409756
 20
59.637666
 30
0.0
 10
43.324686
 20
59.632569
 30
0.0
 10
42.623255
 20
59.629274
 30
0.0
 11
46.348989
 21
72.273132
 31
0.0
 11
46.367383
 21
66.173204
 31
0.0
 11
46.343653
 21
61.730002
 31
0.0
 11
46.282887
 21
59.905454
 31
0.0
 11
45.876957
 21
59.702179
 31
0.0
 11
44.728670
 21
59.615521
 31
0.0
 11
42.623255
 21
59.629274
 31
0.0
  0
LINE
  5
146
100
AcDbEntity
  8
decoupe
 62
7
100
AcDbLine
 10
221.911548
 20
84.644673
 30
0.0
 11
224.349220
 21
84.563216
 31
0.0
  0
LINE
  5
147
100
AcDbEntity
  8
decoupe
 62
7
100
AcDbLine
 10
224.349220
 20
84.563216
 30
0.0
 11
224.349220
 21
81.663309
 31
0.0
  0
LINE
  5
148
100
AcDbEntity
  8
decoupe
 62
7
100
AcDbLine
 10
224.349220
 20
81.663309
 30
0.0
 11
224.349220
 21
78.763399
 31
0.0
  0
LINE
  5
149
100
AcDbEntity
  8
decoupe
 62
7
100
AcDbLine
 10
224.349220
 20
78.763399
 30
0.0
 11
221.194588
 21
78.606614
 31
0.0
  0
SPLINE
  5
14a
100
AcDbEntity
  8
decoupe
 62
7
100
AcDbSpline
 70
0
 71
3
 72
16
 73
12
 74
10
 40
0.000000
 40
0.000000
 40
0.000000
 40
0.000000
 40
2.289534
 40
4.597254
 40
6.902302
 40
9.399343
 40
11.967968
 40
15.016022
 40
21.677138
 40
27.846010
 40
36.239451
 40
36.239451
 40
36.239451
 40
36.239451
 10
216.854969
 20
63.438185
 30
0.0
 10
216.105908
 20
63.593732
 30
0.0
 10
214.601836
 20
63.906061
 30
0.0
 10
212.484306
 20
64.843848
 30
0.0
 10
210.461412
 20
66.089884
 30
0.0
 10
208.690870
 20
67.860237
 30
0.0
 10
207.615297
 20
70.408601
 30
0.0
 10
207.108366
 20
74.454707
 30
0.0
 10
207.820730
 20
80.141736
 30
0.0
 10
214.138666
 20
84.617053
 30
0.0
 10
219.069505
 20
84.634574
 30
0.0
 10
221.911548
 20
84.644673
 30
0.0
 11
216.854969
 21
63.438185
 31
0.0
 11
214.631026
 21
63.982279
 31
0.0
 11
212.509191
 21
64.889688
 31
0.0
 11
210.565063
 21
66.128079
 31
0.0
 11
208.840570
 21
67.933997
 31
0.0
 11
207.786069
 21
70.276189
 31
0.0
 11
207.339983
 21
73.291424
 31
0.0
 11
208.717159
 21
79.808620
 31
0.0
 11
213.583364
 21
83.600061
 31
0.0
 11
221.911548
 21
84.644673
 31
0.0
  0
LINE
  5
14b
100
AcDbEntity
  8
decoupe
 62
7
100
AcDbLine
 10
221.337979
 20
69.235131
 30
0.0
 11
224.349220
 21
69.097043
 31
0.0
  0
LINE
  5
14c
100
AcDbEntity
  8
decoupe
 62
7
100
AcDbLine
 10
224.349220
 20
69.097043
 30
0.0
 11
224.432340
 21
66.494034
 31
0.0
  0
SPLINE
  5
14d
100
AcDbEntity
  8
decoupe
 62
7
100
AcDbSpline
 70
0
 71
3
 72
16
 73
12
 74
10
 40
0.000000
 40
0.000000
 40
0.000000
 40
0.000000
 40
3.307218
 40
5.245779
 40
7.266755
 40
8.807939
 40
10.398142
 40
11.889258
 40
13.508842
 40
15.305001
 40
17.959705
 40
17.959705
 40
17.959705
 40
17.959705
 10
221.194588
 20
78.606614
 30
0.0
 10
220.094759
 20
78.577736
 30
0.0
 10
218.350255
 20
78.531931
 30
0.0
 10
215.968837
 20
77.575336
 30
0.0
 10
215.162154
 20
75.795298
 30
0.0
 10
214.846635
 20
74.107156
 30
0.0
 10
215.069234
 20
72.547511
 30
0.0
 10
215.761899
 20
71.117321
 30
0.0
 10
216.990770
 20
69.956813
 30
0.0
 10
218.972027
 20
69.356578
 30
0.0
 10
220.454038
 20
69.280505
 30
0.0
 10
221.337979
 20
69.235131
 30
0.0
 11
221.194588
 21
78.606614
 31
0.0
 11
217.905194
 21
78.263711
 31
0.0
 11
216.167695
 21
77.403994
 31
0.0
 11
215.189726
 21
75.635401
 31
0.0
 11
214.932615
 21
74.115815
 31
0.0
 11
215.155409
 21
72.541297
 31
0.0
 11
215.816657
 21
71.204816
 31
0.0
 11
217.004864
 21
70.104264
 31
0.0
 11
218.696597
 21
69.500752
 31
0.0
 11
221.337979
 21
69.235131
 31
0.0
  0
LINE
  5
14e
100
AcDbEntity
  8
decoupe
 62
7
100
AcDbLine
 10
216.854969
 20
63.438185
 30
0.0
 11
216.854969
 21
63.438185
 31
0.0
  0
LINE
  5
14f
100
AcDbEntity
  8
decoupe
 62
7
100
AcDbLine
 10
211.639441
 20
119.638290
 30
0.0
 11
211.639441
 21
135.656828
 31
0.0
  0
LINE
  5
150
100
AcDbEntity
  8
decoupe
 62
7
100
AcDbLine
 10
211.639441
 20
135.656828
 30
0.0
 11
215.201627
 21
135.734753
 31
0.0
  0
SPLINE
  5
151
100
AcDbEntity
  8
decoupe
 62
7
100
AcDbSpline
 70
0
 71
3
 72
13
 73
9
 74
7
 40
0.000000
 40
0.000000
 40
0.000000
 40
0.000000
 40
1.361468
 40
2.428330
 40
2.972913
 40
4.442321
 40
7.428193
 40
10.533102
 40
10.533102
 40
10.533102
 40
10.533102
 10
224.432340
 20
66.494034
 30
0.0
 10
224.446210
 20
66.035510
 30
0.0
 10
224.470950
 20
65.217681
 30
0.0
 10
224.424409
 20
64.272059
 30
0.0
 10
224.443645
 20
63.118434
 30
0.0
 10
222.158417
 20
63.295228
 30
0.0
 10
219.996012
 20
63.069553
 30
0.0
 10
217.915537
 20
63.313717
 30
0.0
 10
216.854969
 20
63.438185
 30
0.0
 11
224.432340
 21
66.494034
 31
0.0
 11
224.454225
 21
65.132741
 31
0.0
 11
224.431700
 21
64.066118
 31
0.0
 11
224.369647
 21
63.525081
 31
0.0
 11
222.934416
 21
63.210004
 31
0.0
 11
219.948745
 21
63.175479
 31
0.0
 11
216.854969
 21
63.438185
 31
0.0
  0
LINE
  5
152
100
AcDbEntity
  8
decoupe
 62
7
100
AcDbLine
 10
215.262071
 20
103.542697
 30
0.0
 11
211.639441
 21
103.619752
 31
0.0
  0
LINE
  5
153
100
AcDbEntity
  8
decoupe
 62
7
100
AcDbLine
 10
211.639441
 20
103.619752
 30
0.0
 11
211.639441
 21
119.638290
 31
0.0
  0
LINE
  5
154
100
AcDbEntity
  8
decoupe
 62
7
100
AcDbLine
 10
211.639441
 20
119.638290
 30
0.0
 11
211.639441
 21
119.638290
 31
0.0
  0
LINE
  5
155
100
AcDbEntity
  8
decoupe
 62
7
100
AcDbLine
 10
180.703195
 20
119.638290
 30
0.0
 11
180.703195
 21
135.656828
 31
0.0
  0
LINE
  5
156
100
AcDbEntity
  8
decoupe
 62
7
100
AcDbLine
 10
180.703195
 20
135.656828
 30
0.0
 11
184.431395
 21
135.656828
 31
0.0
  0
LINE
  5
157
100
AcDbEntity
  8
decoupe
 62
7
100
AcDbLine
 10
184.431395
 20
135.656828
 30
0.0
 11
188.159596
 21
135.656828
 31
0.0
  0
LINE
  5
158
100
AcDbEntity
  8
decoupe
 62
7
100
AcDbLine
 10
188.159596
 20
135.656828
 30
0.0
 11
188.234052
 21
119.914473
 31
0.0
  0
SPLINE
  5
159
100
AcDbEntity
  8
decoupe
 62
7
100
AcDbSpline
 70
0
 71
3
 72
16
 73
12
 74
10
 40
0.000000
 40
0.000000
 40
0.000000
 40
0.000000
 40
2.126324
 40
3.327812
 40
3.840175
 40
12.054324
 40
27.004462
 40
35.392155
 40
35.848950
 40
36.957838
 40
39.293194
 40
39.293194
 40
39.293194
 40
39.293194
 10
215.201627
 20
135.734753
 30
0.0
 10
215.906749
 20
135.732397
 30
0.0
 10
217.010303
 20
135.728712
 30
0.0
 10
218.314627
 20
135.780967
 30
0.0
 10
221.421980
 20
134.385398
 30
0.0
 10
217.597247
 20
123.611328
 30
0.0
 10
217.998210
 20
115.430289
 30
0.0
 10
221.138071
 20
105.702553
 30
0.0
 10
218.544161
 20
103.448123
 30
0.0
 10
217.146358
 20
103.579019
 30
0.0
 10
216.023452
 20
103.557373
 30
0.0
 10
215.262071
 20
103.542697
 30
0.0
 11
215.201627
 21
135.734753
 31
0.0
 11
217.327912
 21
135.747680
 31
0.0
 11
218.526231
 21
135.660482
 31
0.0
 11
218.997132
 21
135.458570
 31
0.0
 11
219.192926
 21
127.246755
 31
0.0
 11
219.223652
 21
112.296648
 31
0.0
 11
219.061970
 21
103.910514
 31
0.0
 11
218.701079
 21
103.630480
 31
0.0
 11
217.597349
 21
103.523643
 31
0.0
 11
215.262071
 21
103.542697
 31
0.0
  0
LINE
  5
15a
100
AcDbEntity
  8
decoupe
 62
7
100
AcDbLine
 10
184.365395
 20
103.542414
 30
0.0
 11
180.703195
 21
103.619752
 31
0.0
  0
LINE
  5
15b
100
AcDbEntity
  8
decoupe
 62
7
100
AcDbLine
 10
180.703195
 20
103.619752
 30
0.0
 11
180.703195
 21
119.638290
 31
0.0
  0
LINE
  5
15c
100
AcDbEntity
  8
decoupe
 62
7
100
AcDbLine
 10
180.703195
 20
119.638290
 30
0.0
 11
180.703195
 21
119.638290
 31
0.0
  0
SPLINE
  5
15d
100
AcDbEntity
  8
decoupe
 62
7
100
AcDbSpline
 70
0
 71
3
 72
13
 73
9
 74
7
 40
0.000000
 40
0.000000
 40
0.000000
 40
0.000000
 40
7.977950
 40
13.760592
 40
16.096732
 40
16.561065
 40
17.755768
 40
19.949530
 40
19.949530
 40
19.949530
 40
19.949530
 10
188.234052
 20
119.914473
 30
0.0
 10
188.353685
 20
117.187008
 30
0.0
 10
188.560033
 20
112.482600
 30
0.0
 10
187.615918
 20
107.691085
 30
0.0
 10
188.810517
 20
104.070814
 30
0.0
 10
187.515382
 20
103.487173
 30
0.0
 10
186.222757
 20
103.554148
 30
0.0
 10
185.095320
 20
103.547026
 30
0.0
 10
184.365395
 20
103.542414
 30
0.0
 11
188.234052
 21
119.914473
 31
0.0
 11
188.252304
 21
111.936544
 31
0.0
 11
188.228588
 21
106.153951
 31
0.0
 11
188.168051
 21
103.818594
 31
0.0
 11
187.750678
 21
103.615115
 31
0.0
 11
186.559113
 21
103.528574
 31
0.0
 11
184.365395
 21
103.542414
 31
0.0
  0
LINE
  5
15e
100
AcDbEntity
  8
decoupe
 62
7
100
AcDbLine
 10
175.559319
 20
136.014201
 30
0.0
 11
178.140383
 21
135.933008
 31
0.0
  0
LINE
  5
15f
100
AcDbEntity
  8
decoupe
 62
7
100
AcDbLine
 10
178.140383
 20
135.933008
 30
0.0
 11
178.140383
 21
133.171193
 31
0.0
  0
LINE
  5
160
100
AcDbEntity
  8
decoupe
 62
7
100
AcDbLine
 10
178.140383
 20
133.171193
 30
0.0
 11
178.140383
 21
130.409374
 31
0.0
  0
LINE
  5
161
100
AcDbEntity
  8
decoupe
 62
7
100
AcDbLine
 10
178.140383
 20
130.409374
 30
0.0
 11
174.985751
 21
130.243775
 31
0.0
  0
SPLINE
  5
162
100
AcDbEntity
  8
decoupe
 62
7
100
AcDbSpline
 70
0
 71
3
 72
31
 73
27
 74
25
 40
0.000000
 40
0.000000
 40
0.000000
 40
0.000000
 40
0.299191
 40
0.968010
 40
1.872524
 40
3.325712
 40
5.441792
 40
7.768418
 40
10.455424
 40
12.152944
 40
13.441147
 40
14.253609
 40
14.864027
 40
15.141821
 40
15.353762
 40
15.794217
 40
16.370418
 40
20.445233
 40
24.510716
 40
28.664437
 40
30.551127
 40
32.764758
 40
35.173519
 40
37.438795
 40
40.524820
 40
43.948478
 40
43.948478
 40
43.948478
 40
43.948478
 10
159.584672
 20
103.629672
 30
0.0
 10
159.586662
 20
103.729816
 30
0.0
 10
159.593099
 20
104.053822
 30
0.0
 10
159.820991
 20
104.646139
 30
0.0
 10
160.192068
 20
105.578999
 30
0.0
 10
160.641495
 20
107.005460
 30
0.0
 10
161.093292
 20
108.917907
 30
0.0
 10
161.549761
 20
111.251935
 30
0.0
 10
161.931756
 20
113.451814
 30
0.0
 10
162.399969
 20
115.298145
 30
0.0
 10
162.986501
 20
116.421422
 30
0.0
 10
163.507082
 20
117.180235
 30
0.0
 10
163.739763
 20
117.662770
 30
0.0
 10
164.000738
 20
117.998388
 30
0.0
 10
163.797429
 20
118.279213
 30
0.0
 10
163.589630
 20
118.611352
 30
0.0
 10
162.525211
 20
119.957943
 30
0.0
 10
161.155457
 20
122.590220
 30
0.0
 10
160.779128
 20
126.747754
 30
0.0
 10
161.560352
 20
130.131961
 30
0.0
 10
163.152723
 20
132.417724
 30
0.0
 10
164.836747
 20
133.806188
 30
0.0
 10
166.805807
 20
135.030984
 30
0.0
 10
169.336307
 20
135.675469
 30
0.0
 10
172.245142
 20
136.014500
 30
0.0
 10
174.417044
 20
136.014304
 30
0.0
 10
175.559319
 20
136.014201
 30
0.0
 11
159.584672
 21
103.629672
 31
0.0
 11
159.601280
 21
103.928402
 31
0.0
 11
159.792564
 21
104.569283
 31
0.0
 11
160.117110
 21
105.413568
 31
0.0
 11
160.560804
 21
106.797364
 31
0.0
 11
161.064452
 21
108.852633
 31
0.0
 11
161.519018
 21
111.134421
 31
0.0
 11
162.030263
 21
113.772343
 31
0.0
 11
162.503132
 21
115.402670
 31
0.0
 11
163.089666
 21
116.549599
 31
0.0
 11
163.520269
 21
117.238566
 31
0.0
 11
163.827390
 21
117.766095
 31
0.0
 11
163.944540
 21
118.017979
 31
0.0
 11
163.850778
 21
118.208051
 31
0.0
 11
163.604971
 21
118.573536
 31
0.0
 11
163.260334
 21
119.035308
 31
0.0
 11
161.412088
 21
122.666851
 31
0.0
 11
160.998836
 21
126.711277
 31
0.0
 11
162.065840
 21
130.725613
 31
0.0
 11
163.146772
 21
132.271960
 31
0.0
 11
164.815058
 21
133.726944
 31
0.0
 11
166.896742
 21
134.938852
 31
0.0
 11
169.073845
 21
135.564714
 31
0.0
 11
172.136364
 21
135.944887
 31
0.0
 11
175.559319
 21
136.014201
 31
0.0
  0
LINE
  5
163
100
AcDbEntity
  8
decoupe
 62
7
100
AcDbLine
 10
175.272533
 20
121.363895
 30
0.0
 11
178.140383
 21
121.295380
 31
0.0
  0
LINE
  5
164
100
AcDbEntity
  8
decoupe
 62
7
100
AcDbLine
 10
178.140383
 20
121.295380
 30
0.0
 11
178.140383
 21
118.395474
 31
0.0
  0
LINE
  5
165
100
AcDbEntity
  8
decoupe
 62
7
100
AcDbLine
 10
178.140383
 20
118.395474
 30
0.0
 11
178.140383
 21
115.495564
 31
0.0
  0
LINE
  5
166
100
AcDbEntity
  8
decoupe
 62
7
100
AcDbLine
 10
178.140383
 20
115.495564
 30
0.0
 11
174.931465
 21
115.331178
 31
0.0
  0
SPLINE
  5
167
100
AcDbEntity
  8
decoupe
 62
7
100
AcDbSpline
 70
0
 71
3
 72
16
 73
12
 74
10
 40
0.000000
 40
0.000000
 40
0.000000
 40
0.000000
 40
2.745318
 40
4.359835
 40
5.621326
 40
7.975904
 40
10.197764
 40
12.446474
 40
13.747800
 40
15.189387
 40
17.847601
 40
17.847601
 40
17.847601
 40
17.847601
 10
174.985751
 20
130.243775
 30
0.0
 10
174.077248
 20
130.193906
 30
0.0
 10
172.634457
 20
130.114708
 30
0.0
 10
170.741935
 20
129.742094
 30
0.0
 10
169.407341
 20
128.541933
 30
0.0
 10
168.554188
 20
126.710407
 30
0.0
 10
168.672524
 20
124.320470
 30
0.0
 10
169.853129
 20
122.705451
 30
0.0
 10
171.210433
 20
121.685216
 30
0.0
 10
173.028971
 20
121.389780
 30
0.0
 10
174.390045
 20
121.374077
 30
0.0
 10
175.272533
 20
121.363895
 30
0.0
 11
174.985751
 21
130.243775
 31
0.0
 11
172.250320
 21
130.010982
 31
0.0
 11
170.696965
 21
129.570809
 31
0.0
 11
169.734219
 21
128.755654
 31
0.0
 11
168.732835
 21
126.624628
 31
0.0
 11
168.878782
 21
124.407566
 31
0.0
 11
170.142876
 21
122.547792
 31
0.0
 11
171.212288
 21
121.806302
 31
0.0
 11
172.616950
 21
121.482113
 31
0.0
 11
175.272533
 21
121.363895
 31
0.0
  0
LINE
  5
168
100
AcDbEntity
  8
decoupe
 62
7
100
AcDbLine
 10
159.584672
 20
103.629672
 30
0.0
 11
159.584672
 21
103.629672
 31
0.0
  0
LINE
  5
169
100
AcDbEntity
  8
decoupe
 62
7
100
AcDbLine
 10
129.334559
 20
116.167439
 30
0.0
 11
132.588017
 21
123.968632
 31
0.0
  0
SPLINE
  5
16a
100
AcDbEntity
  8
decoupe
 62
7
100
AcDbSpline
 70
0
 71
3
 72
19
 73
15
 74
13
 40
0.000000
 40
0.000000
 40
0.000000
 40
0.000000
 40
3.428445
 40
5.545231
 40
8.662226
 40
11.666373
 40
13.907648
 40
15.307209
 40
16.023461
 40
17.125147
 40
19.571993
 40
21.364291
 40
22.683805
 40
23.248015
 40
23.248015
 40
23.248015
 40
23.248015
 10
174.931465
 20
115.331178
 30
0.0
 10
173.756929
 20
115.346602
 30
0.0
 10
171.857212
 20
115.371550
 30
0.0
 10
169.393524
 20
113.430193
 30
0.0
 10
169.191763
 20
110.513325
 30
0.0
 10
168.646214
 20
107.820681
 30
0.0
 10
168.082230
 20
105.673612
 30
0.0
 10
167.531634
 20
104.311762
 30
0.0
 10
166.718082
 20
103.535255
 30
0.0
 10
165.219915
 20
103.500243
 30
0.0
 10
163.480609
 20
103.468058
 30
0.0
 10
161.619645
 20
103.503623
 30
0.0
 10
160.392574
 20
103.510390
 30
0.0
 10
159.770881
 20
103.602179
 30
0.0
 10
159.584672
 20
103.629672
 30
0.0
 11
174.931465
 21
115.331178
 31
0.0
 11
171.531156
 21
114.892852
 31
0.0
 11
169.900531
 21
113.543095
 31
0.0
 11
169.124325
 21
110.524293
 31
0.0
 11
168.562662
 21
107.573118
 31
0.0
 11
167.953541
 21
105.416202
 31
0.0
 11
167.328190
 21
104.164122
 31
0.0
 11
166.787762
 21
103.694064
 31
0.0
 11
165.701218
 21
103.512033
 31
0.0
 11
163.254560
 21
103.481660
 31
0.0
 11
161.462377
 21
103.501943
 31
0.0
 11
160.143935
 21
103.555118
 31
0.0
 11
159.584672
 21
103.629672
 31
0.0
  0
LINE
  5
16b
100
AcDbEntity
  8
decoupe
 62
7
100
AcDbLine
 10
136.445975
 20
133.812235
 30
0.0
 11
137.221533
 21
135.656602
 31
0.0
  0
LINE
  5
16c
100
AcDbEntity
  8
decoupe
 62
7
100
AcDbLine
 10
137.221533
 20
135.656602
 30
0.0
 11
140.468192
 21
135.735424
 31
0.0
  0
SPLINE
  5
16d
100
AcDbEntity
  8
decoupe
 62
7
100
AcDbSpline
 70
0
 71
3
 72
10
 73
6
 74
4
 40
0.000000
 40
0.000000
 40
0.000000
 40
0.000000
 40
4.035128
 40
8.111901
 40
10.572684
 40
10.572684
 40
10.572684
 40
10.572684
 10
132.588017
 20
123.968632
 30
0.0
 10
133.075318
 20
125.222293
 30
0.0
 10
134.054950
 20
127.742556
 30
0.0
 10
135.331343
 20
131.027570
 30
0.0
 10
136.141156
 20
133.050710
 30
0.0
 10
136.445975
 20
133.812235
 30
0.0
 11
132.588017
 21
123.968632
 31
0.0
 11
134.049842
 21
127.729659
 31
0.0
 11
135.534430
 21
131.526510
 31
0.0
 11
136.445975
 21
133.812235
 31
0.0
  0
LINE
  5
16e
100
AcDbEntity
  8
decoupe
 62
7
100
AcDbLine
 10
143.963449
 20
135.573914
 30
0.0
 11
131.678513
 21
103.617759
 31
0.0
  0
SPLINE
  5
16f
100
AcDbEntity
  8
decoupe
 62
7
100
AcDbSpline
 70
0
 71
3
 72
13
 73
9
 74
7
 40
0.000000
 40
0.000000
 40
0.000000
 40
0.000000
 40
0.441262
 40
0.869298
 40
1.280021
 40
2.366128
 40
3.145093
 40
3.508516
 40
3.508516
 40
3.508516
 40
3.508516
 10
140.468192
 20
135.735424
 30
0.0
 10
140.615251
 20
135.738571
 30
0.0
 10
140.904961
 20
135.744769
 30
0.0
 10
141.331579
 20
135.748101
 30
0.0
 10
141.973498
 20
135.748647
 30
0.0
 10
142.729407
 20
135.719814
 30
0.0
 10
143.478313
 20
135.707274
 30
0.0
 10
143.846363
 20
135.606100
 30
0.0
 10
143.963449
 20
135.573914
 30
0.0
 11
140.468192
 21
135.735424
 31
0.0
 11
140.909374
 21
135.743849
 31
0.0
 11
141.337392
 21
135.747639
 31
0.0
 11
141.748115
 21
135.746995
 31
0.0
 11
142.833896
 21
135.720377
 31
0.0
 11
143.610586
 21
135.660883
 31
0.0
 11
143.963449
 21
135.573914
 31
0.0
  0
SPLINE
  5
170
100
AcDbEntity
  8
decoupe
 62
7
100
AcDbSpline
 70
0
 71
3
 72
10
 73
6
 74
4
 40
0.000000
 40
0.000000
 40
0.000000
 40
0.000000
 40
2.140740
 40
4.268879
 40
6.244757
 40
6.244757
 40
6.244757
 40
6.244757
 10
131.678513
 20
103.617759
 30
0.0
 10
130.964949
 20
103.621925
 30
0.0
 10
129.542019
 20
103.630233
 30
0.0
 10
127.460454
 20
103.646751
 30
0.0
 10
126.092465
 20
103.636592
 30
0.0
 10
125.433847
 20
103.631701
 30
0.0
 11
131.678513
 21
103.617759
 31
0.0
 11
129.537815
 21
103.631008
 31
0.0
 11
127.409702
 21
103.641503
 31
0.0
 11
125.433847
 21
103.631701
 31
0.0
  0
LINE
  5
171
100
AcDbEntity
  8
decoupe
 62
7
100
AcDbLine
 10
127.284226
 20
118.340175
 30
0.0
 11
128.133097
 21
116.214136
 31
0.0
  0
LINE
  5
172
100
AcDbEntity
  8
decoupe
 62
7
100
AcDbLine
 10
128.133097
 20
116.214136
 30
0.0
 11
129.334559
 21
116.167439
 31
0.0
  0
SPLINE
  5
173
100
AcDbEntity
  8
decoupe
 62
7
100
AcDbSpline
 70
0
 71
3
 72
28
 73
24
 74
22
 40
0.000000
 40
0.000000
 40
0.000000
 40
0.000000
 40
1.272911
 40
4.371164
 40
8.498997
 40
12.610931
 40
15.740370
 40
17.209779
 40
22.548404
 40
29.836809
 40
33.724165
 40
34.114172
 40
35.029487
 40
37.209423
 40
39.118977
 40
40.279447
 40
40.827074
 40
42.122927
 40
45.087450
 40
49.080408
 40
53.326271
 40
56.953387
 40
59.176427
 40
59.176427
 40
59.176427
 40
59.176427
 10
125.433847
 20
103.631701
 30
0.0
 10
125.257607
 20
104.018033
 30
0.0
 10
124.652398
 20
105.344694
 30
0.0
 10
123.872466
 20
108.076882
 30
0.0
 10
122.577063
 20
111.626533
 30
0.0
 10
121.241430
 20
115.172851
 30
0.0
 10
120.219542
 20
117.891970
 30
0.0
 10
119.028320
 20
120.979015
 30
0.0
 10
117.123167
 20
125.339640
 30
0.0
 10
116.120505
 20
130.570407
 30
0.0
 10
113.295565
 20
134.104725
 30
0.0
 10
114.015077
 20
135.842626
 30
0.0
 10
115.407918
 20
135.692704
 30
0.0
 10
116.929997
 20
135.836290
 30
0.0
 10
118.726316
 20
135.765121
 30
0.0
 10
119.912393
 20
135.727809
 30
0.0
 10
120.923978
 20
135.398465
 30
0.0
 10
121.234901
 20
133.592147
 30
0.0
 10
122.459273
 20
131.258998
 30
0.0
 10
123.695372
 20
127.671262
 30
0.0
 10
125.117550
 20
123.999294
 30
0.0
 10
126.307231
 20
120.847173
 30
0.0
 10
127.015200
 20
119.030503
 30
0.0
 10
127.284226
 20
118.340175
 30
0.0
 11
125.433847
 21
103.631701
 31
0.0
 11
124.922431
 21
104.797358
 31
0.0
 11
123.937078
 21
107.734747
 31
0.0
 11
122.568578
 21
111.629128
 31
0.0
 11
121.126394
 21
115.479857
 31
0.0
 11
120.019350
 21
118.406945
 31
0.0
 11
119.487284
 21
119.776641
 31
0.0
 11
117.554697
 21
124.753188
 31
0.0
 11
115.041627
 21
131.594630
 31
0.0
 11
113.793781
 21
135.276263
 31
0.0
 11
113.972711
 21
135.622802
 31
0.0
 11
114.876674
 21
135.766512
 31
0.0
 11
117.056425
 21
135.794956
 31
0.0
 11
118.965636
 21
135.758817
 31
0.0
 11
120.120330
 21
135.643180
 31
0.0
 11
120.627750
 21
135.437217
 31
0.0
 11
121.159975
 21
134.255705
 31
0.0
 11
122.258686
 21
131.502301
 31
0.0
 11
123.685893
 21
127.773120
 31
0.0
 11
125.187090
 21
123.801501
 31
0.0
 11
126.479835
 21
120.412580
 31
0.0
 11
127.284226
 21
118.340175
 31
0.0
  0
LINE
  5
174
100
AcDbEntity
  8
decoupe
 62
7
100
AcDbLine
 10
206.495568
 20
136.014201
 30
0.0
 11
209.076629
 21
135.933008
 31
0.0
  0
LINE
  5
175
100
AcDbEntity
  8
decoupe
 62
7
100
AcDbLine
 10
209.076629
 20
135.933008
 30
0.0
 11
209.076629
 21
133.033101
 31
0.0
  0
LINE
  5
176
100
AcDbEntity
  8
decoupe
 62
7
100
AcDbLine
 10
209.076629
 20
133.033101
 30
0.0
 11
209.076629
 21
130.133195
 31
0.0
  0
LINE
  5
177
100
AcDbEntity
  8
decoupe
 62
7
100
AcDbLine
 10
209.076629
 20
130.133195
 30
0.0
 11
205.778605
 21
129.980295
 31
0.0
  0
SPLINE
  5
178
100
AcDbEntity
  8
decoupe
 62
7
100
AcDbSpline
 70
0
 71
3
 72
19
 73
15
 74
13
 40
0.000000
 40
0.000000
 40
0.000000
 40
0.000000
 40
3.511899
 40
6.838569
 40
9.837669
 40
12.062185
 40
14.588228
 40
16.835117
 40
19.551059
 40
21.812316
 40
23.845069
 40
27.462337
 40
31.445832
 40
36.540309
 40
36.540309
 40
36.540309
 40
36.540309
 10
201.586327
 20
114.827126
 30
0.0
 10
200.434491
 20
115.071750
 30
0.0
 10
198.191572
 20
115.548095
 30
0.0
 10
195.319627
 20
117.223607
 30
0.0
 10
193.276304
 20
119.313149
 30
0.0
 10
192.346872
 20
121.760199
 30
0.0
 10
191.851626
 20
124.044318
 30
0.0
 10
191.791360
 20
126.561145
 30
0.0
 10
192.310295
 20
128.927786
 30
0.0
 10
193.163804
 20
131.128510
 30
0.0
 10
194.851728
 20
133.198001
 30
0.0
 10
197.594321
 20
134.999717
 30
0.0
 10
201.758852
 20
136.050443
 30
0.0
 10
204.792892
 20
136.027228
 30
0.0
 10
206.495568
 20
136.014201
 30
0.0
 11
201.586327
 21
114.827126
 31
0.0
 11
198.195832
 21
115.742539
 31
0.0
 11
195.316643
 21
117.408975
 31
0.0
 11
193.296182
 21
119.625353
 31
0.0
 11
192.434239
 21
121.676092
 31
0.0
 11
191.915729
 21
124.148346
 31
0.0
 11
191.876395
 21
126.394890
 31
0.0
 11
192.416943
 21
129.056496
 31
0.0
 11
193.300702
 21
131.137903
 31
0.0
 11
194.565832
 21
132.728982
 31
0.0
 11
197.564679
 21
134.751740
 31
0.0
 11
201.405212
 21
135.809349
 31
0.0
 11
206.495568
 21
136.014201
 31
0.0
  0
LINE
  5
179
100
AcDbEntity
  8
decoupe
 62
7
100
AcDbLine
 10
205.726137
 20
120.881106
 30
0.0
 11
209.076629
 21
120.743018
 31
0.0
  0
LINE
  5
17a
100
AcDbEntity
  8
decoupe
 62
7
100
AcDbLine
 10
209.076629
 20
120.743018
 30
0.0
 11
209.159331
 21
118.000859
 31
0.0
  0
SPLINE
  5
17b
100
AcDbEntity
  8
decoupe
 62
7
100
AcDbSpline
 70
0
 71
3
 72
16
 73
12
 74
10
 40
0.000000
 40
0.000000
 40
0.000000
 40
0.000000
 40
3.066030
 40
4.880884
 40
6.586441
 40
8.866408
 40
11.029447
 40
13.358361
 40
14.190010
 40
15.433760
 40
17.606952
 40
17.606952
 40
17.606952
 40
17.606952
 10
205.778605
 20
129.980295
 30
0.0
 10
204.762904
 20
129.944533
 30
0.0
 10
203.145986
 20
129.887604
 30
0.0
 10
200.945628
 20
129.193456
 30
0.0
 10
199.857961
 20
127.489473
 30
0.0
 10
199.290380
 20
125.463457
 30
0.0
 10
199.900589
 20
123.189399
 30
0.0
 10
201.120613
 20
121.796584
 30
0.0
 10
202.442390
 20
121.115926
 30
0.0
 10
203.871507
 20
120.969828
 30
0.0
 10
205.005141
 20
120.915597
 30
0.0
 10
205.726137
 20
120.881106
 30
0.0
 11
205.778605
 21
129.980295
 31
0.0
 11
202.726113
 21
129.692494
 31
0.0
 11
201.046234
 21
129.005688
 31
0.0
 11
200.035160
 21
127.632133
 31
0.0
 11
199.493014
 21
125.417561
 31
0.0
 11
200.030489
 21
123.322362
 31
0.0
 11
201.585480
 21
121.588626
 31
0.0
 11
202.330801
 21
121.219657
 31
0.0
 11
203.556782
 21
121.010172
 31
0.0
 11
205.726137
 21
120.881106
 31
0.0
  0
LINE
  5
17c
100
AcDbEntity
  8
decoupe
 62
7
100
AcDbLine
 10
201.586327
 20
114.827126
 30
0.0
 11
201.586327
 21
114.827126
 31
0.0
  0
LINE
  5
17d
100
AcDbEntity
  8
decoupe
 62
7
100
AcDbLine
 10
257.497620
 20
171.146174
 30
0.0
 11
257.497620
 21
187.302803
 31
0.0
  0
LINE
  5
17e
100
AcDbEntity
  8
decoupe
 62
7
100
AcDbLine
 10
257.497620
 20
187.302803
 30
0.0
 11
261.225820
 21
187.302803
 31
0.0
  0
LINE
  5
17f
100
AcDbEntity
  8
decoupe
 62
7
100
AcDbLine
 10
261.225820
 20
187.302803
 30
0.0
 11
264.954021
 21
187.302803
 31
0.0
  0
LINE
  5
180
100
AcDbEntity
  8
decoupe
 62
7
100
AcDbLine
 10
264.954021
 20
187.302803
 30
0.0
 11
265.028466
 21
171.422357
 31
0.0
  0
SPLINE
  5
181
100
AcDbEntity
  8
decoupe
 62
7
100
AcDbSpline
 70
0
 71
3
 72
13
 73
9
 74
7
 40
0.000000
 40
0.000000
 40
0.000000
 40
0.000000
 40
1.431403
 40
2.547865
 40
3.110850
 40
4.464069
 40
7.326483
 40
10.670375
 40
10.670375
 40
10.670375
 40
10.670375
 10
209.159331
 20
118.000859
 30
0.0
 10
209.173891
 20
117.518454
 30
0.0
 10
209.199808
 20
116.659783
 30
0.0
 10
209.146540
 20
115.673188
 30
0.0
 10
209.182358
 20
114.530507
 30
0.0
 10
207.031807
 20
114.623878
 30
0.0
 10
204.849971
 20
114.462230
 30
0.0
 10
202.729054
 20
114.699362
 30
0.0
 10
201.586327
 20
114.827126
 30
0.0
 11
209.159331
 21
118.000859
 31
0.0
 11
209.181062
 21
116.569621
 31
0.0
 11
209.158537
 21
115.453386
 31
0.0
 11
209.096633
 21
114.893816
 31
0.0
 11
207.781116
 21
114.576613
 31
0.0
 11
204.918814
 21
114.551197
 31
0.0
 11
201.586327
 21
114.827126
 31
0.0
  0
LINE
  5
182
100
AcDbEntity
  8
decoupe
 62
7
100
AcDbLine
 10
261.159820
 20
154.912207
 30
0.0
 11
257.497620
 21
154.989544
 31
0.0
  0
LINE
  5
183
100
AcDbEntity
  8
decoupe
 62
7
100
AcDbLine
 10
257.497620
 20
154.989544
 30
0.0
 11
257.497620
 21
171.146174
 31
0.0
  0
LINE
  5
184
100
AcDbEntity
  8
decoupe
 62
7
100
AcDbLine
 10
257.497620
 20
171.146174
 30
0.0
 11
257.497620
 21
171.146174
 31
0.0
  0
LINE
  5
185
100
AcDbEntity
  8
decoupe
 62
7
100
AcDbLine
 10
227.977045
 20
171.146174
 30
0.0
 11
227.977045
 21
187.302803
 31
0.0
  0
LINE
  5
186
100
AcDbEntity
  8
decoupe
 62
7
100
AcDbLine
 10
227.977045
 20
187.302803
 30
0.0
 11
231.561854
 21
187.302803
 31
0.0
  0
LINE
  5
187
100
AcDbEntity
  8
decoupe
 62
7
100
AcDbLine
 10
231.561854
 20
187.302803
 30
0.0
 11
235.146664
 21
187.302803
 31
0.0
  0
LINE
  5
188
100
AcDbEntity
  8
decoupe
 62
7
100
AcDbLine
 10
235.146664
 20
187.302803
 30
0.0
 11
235.221105
 21
171.422357
 31
0.0
  0
SPLINE
  5
189
100
AcDbEntity
  8
decoupe
 62
7
100
AcDbSpline
 70
0
 71
3
 72
13
 73
9
 74
7
 40
0.000000
 40
0.000000
 40
0.000000
 40
0.000000
 40
8.047506
 40
13.879758
 40
16.234817
 40
16.699144
 40
17.893843
 40
20.087607
 40
20.087607
 40
20.087607
 40
20.087607
 10
265.028466
 20
171.422357
 30
0.0
 10
265.149300
 20
168.671006
 30
0.0
 10
265.357706
 20
163.925675
 30
0.0
 10
264.403671
 20
159.093907
 30
0.0
 10
265.610475
 20
155.443740
 30
0.0
 10
264.309979
 20
154.856857
 30
0.0
 10
263.017066
 20
154.924014
 30
0.0
 10
261.889700
 20
154.916847
 30
0.0
 10
261.159820
 20
154.912207
 30
0.0
 11
265.028466
 21
171.422357
 31
0.0
 11
265.046715
 21
163.374871
 31
0.0
 11
265.023002
 21
157.542668
 31
0.0
 11
264.962468
 21
155.188387
 31
0.0
 11
264.545100
 21
154.984907
 31
0.0
 11
263.353539
 21
154.898366
 31
0.0
 11
261.159820
 21
154.912207
 31
0.0
  0
LINE
  5
18a
100
AcDbEntity
  8
decoupe
 62
7
100
AcDbLine
 10
231.495752
 20
154.911956
 30
0.0
 11
227.977045
 21
154.989544
 31
0.0
  0
LINE
  5
18b
100
AcDbEntity
  8
decoupe
 62
7
100
AcDbLine
 10
227.977045
 20
154.989544
 30
0.0
 11
227.977045
 21
171.146174
 31
0.0
  0
LINE
  5
18c
100
AcDbEntity
  8
decoupe
 62
7
100
AcDbLine
 10
227.977045
 20
171.146174
 30
0.0
 11
227.977045
 21
171.146174
 31
0.0
  0
SPLINE
  5
18d
100
AcDbEntity
  8
decoupe
 62
7
100
AcDbSpline
 70
0
 71
3
 72
13
 73
9
 74
7
 40
0.000000
 40
0.000000
 40
0.000000
 40
0.000000
 40
8.047541
 40
13.879883
 40
16.235069
 40
16.688832
 40
17.840229
 40
19.945718
 40
19.945718
 40
19.945718
 40
19.945718
 10
235.221105
 20
171.422357
 30
0.0
 10
235.341614
 20
168.672257
 30
0.0
 10
235.549459
 20
163.929060
 30
0.0
 10
234.598097
 20
159.086590
 30
0.0
 10
235.799852
 20
155.454808
 30
0.0
 10
234.527053
 20
154.858208
 30
0.0
 10
233.278550
 20
154.922648
 30
0.0
 10
232.195752
 20
154.916154
 30
0.0
 10
231.495752
 20
154.911956
 30
0.0
 11
235.221105
 21
171.422357
 31
0.0
 11
235.239339
 21
163.374836
 31
0.0
 11
235.215587
 21
157.542543
 31
0.0
 11
235.155009
 21
155.188136
 31
0.0
 11
234.749329
 21
154.984853
 31
0.0
 11
233.601197
 21
154.898198
 31
0.0
 11
231.495752
 21
154.911956
 31
0.0
  0
LINE
  5
18e
100
AcDbEntity
  8
decoupe
 62
7
100
AcDbLine
 10
222.402993
 20
187.386350
 30
0.0
 11
225.127447
 21
187.302803
 31
0.0
  0
LINE
  5
18f
100
AcDbEntity
  8
decoupe
 62
7
100
AcDbLine
 10
225.127447
 20
187.302803
 30
0.0
 11
225.127447
 21
184.540985
 31
0.0
  0
LINE
  5
190
100
AcDbEntity
  8
decoupe
 62
7
100
AcDbLine
 10
225.127447
 20
184.540985
 30
0.0
 11
225.127447
 21
181.779170
 31
0.0
  0
LINE
  5
191
100
AcDbEntity
  8
decoupe
 62
7
100
AcDbLine
 10
225.127447
 20
181.779170
 30
0.0
 11
221.972815
 21
181.622381
 31
0.0
  0
SPLINE
  5
192
100
AcDbEntity
  8
decoupe
 62
7
100
AcDbSpline
 70
0
 71
3
 72
28
 73
24
 74
22
 40
0.000000
 40
0.000000
 40
0.000000
 40
0.000000
 40
0.202952
 40
0.575354
 40
1.059646
 40
2.714780
 40
4.939385
 40
8.054675
 40
10.781419
 40
12.674125
 40
14.308557
 40
14.922814
 40
15.530836
 40
16.809954
 40
19.247200
 40
21.539861
 40
24.209764
 40
25.920045
 40
27.198020
 40
28.577218
 40
32.757446
 40
37.434023
 40
43.593674
 40
43.593674
 40
43.593674
 40
43.593674
 10
206.545677
 20
155.024560
 30
0.0
 10
206.531112
 20
155.091620
 30
0.0
 10
206.489822
 20
155.281731
 30
0.0
 10
206.623214
 20
155.626075
 30
0.0
 10
206.975659
 20
156.374477
 30
0.0
 10
207.574694
 20
157.713671
 30
0.0
 10
208.112331
 20
159.987881
 30
0.0
 10
208.592767
 20
162.634721
 30
0.0
 10
209.024126
 20
165.169680
 30
0.0
 10
209.631584
 20
167.195062
 30
0.0
 10
210.282850
 20
168.371393
 30
0.0
 10
210.898418
 20
169.195604
 30
0.0
 10
210.563945
 20
170.047388
 30
0.0
 10
209.701602
 20
171.156277
 30
0.0
 10
208.678243
 20
172.924175
 30
0.0
 10
208.064729
 20
175.340883
 30
0.0
 10
208.097450
 20
177.578472
 30
0.0
 10
208.217566
 20
179.461541
 30
0.0
 10
208.551651
 20
180.889374
 30
0.0
 10
209.531629
 20
182.953753
 30
0.0
 10
211.822701
 20
185.670949
 30
0.0
 10
216.726584
 20
187.365493
 30
0.0
 10
220.345747
 20
187.378791
 30
0.0
 10
222.402993
 20
187.386350
 30
0.0
 11
206.545677
 21
155.024560
 31
0.0
 11
206.516132
 21
155.225350
 31
0.0
 11
206.611465
 21
155.585342
 31
0.0
 11
206.811039
 21
156.026601
 31
0.0
 11
207.453872
 21
157.551801
 31
0.0
 11
208.027838
 21
159.701087
 31
0.0
 11
208.609613
 21
162.761572
 31
0.0
 11
209.137216
 21
165.436785
 31
0.0
 11
209.717737
 21
167.238266
 31
0.0
 11
210.512448
 21
168.666482
 31
0.0
 11
210.791967
 21
169.213457
 31
0.0
 11
210.640810
 21
169.802390
 31
0.0
 11
209.945365
 21
170.875935
 31
0.0
 11
208.763376
 21
173.007383
 31
0.0
 11
208.189017
 21
175.226933
 31
0.0
 11
208.128723
 21
177.896156
 31
0.0
 11
208.280840
 21
179.599659
 31
0.0
 11
208.584986
 21
180.840914
 31
0.0
 11
209.157711
 21
182.095575
 31
0.0
 11
211.914314
 21
185.238096
 31
0.0
 11
216.257236
 21
186.972859
 31
0.0
 11
222.402993
 21
187.386350
 31
0.0
  0
LINE
  5
193
100
AcDbEntity
  8
decoupe
 62
7
100
AcDbLine
 10
221.828984
 20
172.803264
 30
0.0
 11
225.127447
 21
172.665173
 31
0.0
  0
LINE
  5
194
100
AcDbEntity
  8
decoupe
 62
7
100
AcDbLine
 10
225.127447
 20
172.665173
 30
0.0
 11
225.127447
 21
169.765266
 31
0.0
  0
LINE
  5
195
100
AcDbEntity
  8
decoupe
 62
7
100
AcDbLine
 10
225.127447
 20
169.765266
 30
0.0
 11
225.127447
 21
166.865359
 31
0.0
  0
LINE
  5
196
100
AcDbEntity
  8
decoupe
 62
7
100
AcDbLine
 10
225.127447
 20
166.865359
 30
0.0
 11
221.942956
 21
166.702102
 31
0.0
  0
SPLINE
  5
197
100
AcDbEntity
  8
decoupe
 62
7
100
AcDbSpline
 70
0
 71
3
 72
16
 73
12
 74
10
 40
0.000000
 40
0.000000
 40
0.000000
 40
0.000000
 40
3.241538
 40
5.142440
 40
7.108021
 40
9.034550
 40
10.980555
 40
12.963028
 40
13.888683
 40
15.132260
 40
17.324748
 40
17.324748
 40
17.324748
 40
17.324748
 10
221.972815
 20
181.622381
 30
0.0
 10
220.894681
 20
181.593437
 30
0.0
 10
219.184308
 20
181.547519
 30
0.0
 10
216.852208
 20
180.655264
 30
0.0
 10
215.903314
 20
178.849256
 30
0.0
 10
215.529624
 20
176.904355
 30
0.0
 10
216.146360
 20
174.968665
 30
0.0
 10
217.258721
 20
173.723914
 30
0.0
 10
218.497918
 20
173.063642
 30
0.0
 10
219.959940
 20
172.883904
 30
0.0
 10
221.100936
 20
172.834676
 30
0.0
 10
221.828984
 20
172.803264
 30
0.0
 11
221.972815
 21
181.622381
 31
0.0
 11
218.747619
 21
181.297302
 31
0.0
 11
217.026971
 21
180.489343
 31
0.0
 11
215.995975
 21
178.815856
 31
0.0
 11
215.693173
 21
176.913273
 31
0.0
 11
216.261880
 21
175.052222
 31
0.0
 11
217.594584
 21
173.584537
 31
0.0
 11
218.417527
 21
173.160745
 31
0.0
 11
219.640463
 21
172.935105
 31
0.0
 11
221.828984
 21
172.803264
 31
0.0
  0
LINE
  5
198
100
AcDbEntity
  8
decoupe
 62
7
100
AcDbLine
 10
206.545677
 20
155.024560
 30
0.0
 11
206.545677
 21
155.024560
 31
0.0
  0
LINE
  5
199
100
AcDbEntity
  8
decoupe
 62
7
100
AcDbLine
 10
188.705792
 20
157.889454
 30
0.0
 11
188.705792
 21
160.743330
 31
0.0
  0
LINE
  5
19a
100
AcDbEntity
  8
decoupe
 62
7
100
AcDbLine
 10
188.705792
 20
160.743330
 30
0.0
 11
189.903337
 21
161.127756
 31
0.0
  0
SPLINE
  5
19b
100
AcDbEntity
  8
decoupe
 62
7
100
AcDbSpline
 70
0
 71
3
 72
19
 73
15
 74
13
 40
0.000000
 40
0.000000
 40
0.000000
 40
0.000000
 40
3.404066
 40
5.555345
 40
8.975085
 40
12.131786
 40
14.005241
 40
15.228743
 40
15.980855
 40
17.078821
 40
19.550663
 40
21.346575
 40
22.675835
 40
23.254830
 40
23.254830
 40
23.254830
 40
23.254830
 10
221.942956
 20
166.702102
 30
0.0
 10
220.766111
 20
166.728417
 30
0.0
 10
218.845531
 20
166.771361
 30
0.0
 10
216.406393
 20
164.633654
 30
0.0
 10
216.188128
 20
161.568437
 30
0.0
 10
215.602283
 20
158.858725
 30
0.0
 10
215.113236
 20
156.806994
 30
0.0
 10
214.487839
 20
155.685210
 30
0.0
 10
213.745010
 20
154.911681
 30
0.0
 10
212.218409
 20
154.863805
 30
0.0
 10
210.475617
 20
154.838100
 30
0.0
 10
208.601224
 20
154.876160
 30
0.0
 10
207.364056
 20
154.886432
 30
0.0
 10
206.736183
 20
154.992406
 30
0.0
 10
206.545677
 20
155.024560
 30
0.0
 11
221.942956
 21
166.702102
 31
0.0
 11
218.566670
 21
166.268107
 31
0.0
 11
216.956110
 21
164.841888
 31
0.0
 11
216.102732
 21
161.530338
 31
0.0
 11
215.495742
 21
158.432544
 31
0.0
 11
214.966895
 21
156.635281
 31
0.0
 11
214.351235
 21
155.577964
 31
0.0
 11
213.794493
 21
155.072285
 31
0.0
 11
212.713291
 21
154.881147
 31
0.0
 11
210.241628
 21
154.851456
 31
0.0
 11
208.445872
 21
154.875177
 31
0.0
 11
207.118068
 21
154.937366
 31
0.0
 11
206.545677
 21
155.024560
 31
0.0
  0
LINE
  5
19c
100
AcDbEntity
  8
decoupe
 62
7
100
AcDbLine
 10
190.121506
 20
180.844216
 30
0.0
 11
188.562398
 21
181.466541
 31
0.0
  0
LINE
  5
19d
100
AcDbEntity
  8
decoupe
 62
7
100
AcDbLine
 10
188.562398
 20
181.466541
 30
0.0
 11
188.562398
 21
184.186204
 31
0.0
  0
SPLINE
  5
19e
100
AcDbEntity
  8
decoupe
 62
7
100
AcDbSpline
 70
0
 71
3
 72
13
 73
9
 74
7
 40
0.000000
 40
0.000000
 40
0.000000
 40
0.000000
 40
4.263530
 40
9.052659
 40
14.064229
 40
17.668871
 40
21.043005
 40
24.167076
 40
24.167076
 40
24.167076
 40
24.167076
 10
189.903337
 20
161.127756
 30
0.0
 10
191.155648
 20
161.863314
 30
0.0
 10
193.814652
 20
163.425108
 30
0.0
 10
195.787825
 20
167.952362
 30
0.0
 10
196.121015
 20
172.501698
 30
0.0
 10
194.856501
 20
176.347340
 30
0.0
 10
192.946028
 20
179.242355
 30
0.0
 10
191.038546
 20
180.324138
 30
0.0
 10
190.121506
 20
180.844216
 30
0.0
 11
189.903337
 21
161.127756
 31
0.0
 11
193.352185
 21
163.634375
 31
0.0
 11
195.486457
 21
167.921639
 31
0.0
 11
195.776119
 21
172.924831
 31
0.0
 11
194.676463
 21
176.357643
 31
0.0
 11
192.715767
 21
179.103633
 31
0.0
 11
190.121506
 21
180.844216
 31
0.0
  0
LINE
  5
19f
100
AcDbEntity
  8
decoupe
 62
7
100
AcDbLine
 10
188.705792
 20
157.889454
 30
0.0
 11
188.705792
 21
157.889454
 31
0.0
  0
SPLINE
  5
1a0
100
AcDbEntity
  8
decoupe
 62
7
100
AcDbSpline
 70
0
 71
3
 72
25
 73
21
 74
19
 40
0.000000
 40
0.000000
 40
0.000000
 40
0.000000
 40
1.685412
 40
2.570163
 40
2.987432
 40
3.504384
 40
4.448849
 40
5.624989
 40
14.131033
 40
22.619453
 40
31.547554
 40
35.361697
 40
39.678820
 40
43.643830
 40
46.169574
 40
48.852996
 40
50.599046
 40
51.024379
 40
52.051554
 40
53.545571
 40
53.545571
 40
53.545571
 40
53.545571
 10
188.562398
 20
184.186204
 30
0.0
 10
188.577201
 20
184.746421
 30
0.0
 10
188.599774
 20
185.600722
 30
0.0
 10
188.601759
 20
186.605580
 30
0.0
 10
188.989662
 20
187.166770
 30
0.0
 10
189.680007
 20
187.045919
 30
0.0
 10
190.519548
 20
186.969921
 30
0.0
 10
194.028678
 20
186.259001
 30
0.0
 10
199.621657
 20
183.132986
 30
0.0
 10
203.889455
 20
175.216492
 30
0.0
 10
204.001331
 20
167.712557
 30
0.0
 10
201.462080
 20
162.553696
 30
0.0
 10
198.885138
 20
159.409307
 30
0.0
 10
196.140056
 20
157.073863
 30
0.0
 10
193.197037
 20
155.804080
 30
0.0
 10
191.257968
 20
155.477211
 30
0.0
 10
189.101310
 20
154.464628
 30
0.0
 10
188.769282
 20
155.588621
 30
0.0
 10
188.735685
 20
156.541850
 30
0.0
 10
188.716915
 20
157.388025
 30
0.0
 10
188.705792
 20
157.889454
 30
0.0
 11
188.562398
 21
184.186204
 31
0.0
 11
188.597834
 21
185.871243
 31
0.0
 11
188.729880
 21
186.746084
 31
0.0
 11
188.997144
 21
187.066527
 31
0.0
 11
189.513923
 21
187.079914
 31
0.0
 11
190.450818
 21
186.960576
 31
0.0
 11
191.604996
 21
186.734349
 31
0.0
 11
199.017556
 21
182.562212
 31
0.0
 11
203.157757
 21
175.151948
 31
0.0
 11
203.064175
 21
166.224337
 31
0.0
 11
201.422109
 21
162.781765
 31
0.0
 11
198.717967
 21
159.416475
 31
0.0
 11
195.612690
 21
156.951003
 31
0.0
 11
193.299054
 21
155.937851
 31
0.0
 11
190.727691
 21
155.170491
 31
0.0
 11
188.992575
 21
154.975391
 31
0.0
 11
188.843266
 21
155.373656
 31
0.0
 11
188.742664
 21
156.395892
 31
0.0
 11
188.705792
 21
157.889454
 31
0.0
  0
LINE
  5
1a1
100
AcDbEntity
  8
decoupe
 62
7
100
AcDbLine
 10
184.422274
 20
186.969697
 30
0.0
 11
185.856197
 21
187.026621
 31
0.0
  0
LINE
  5
1a2
100
AcDbEntity
  8
decoupe
 62
7
100
AcDbLine
 10
185.856197
 20
187.026621
 30
0.0
 11
185.856197
 21
184.268113
 31
0.0
  0
LINE
  5
1a3
100
AcDbEntity
  8
decoupe
 62
7
100
AcDbLine
 10
185.856197
 20
184.268113
 30
0.0
 11
185.856197
 21
181.509602
 31
0.0
  0
LINE
  5
1a4
100
AcDbEntity
  8
decoupe
 62
7
100
AcDbLine
 10
185.856197
 20
181.509602
 30
0.0
 11
184.349839
 21
180.988126
 31
0.0
  0
SPLINE
  5
1a5
100
AcDbEntity
  8
decoupe
 62
7
100
AcDbSpline
 70
0
 71
3
 72
16
 73
12
 74
10
 40
0.000000
 40
0.000000
 40
0.000000
 40
0.000000
 40
5.151433
 40
10.612628
 40
15.965755
 40
18.827401
 40
22.133698
 40
25.017203
 40
31.327195
 40
37.612638
 40
43.392126
 40
43.392126
 40
43.392126
 40
43.392126
 10
181.984599
 20
155.588321
 30
0.0
 10
180.380437
 20
156.250842
 30
0.0
 10
177.075651
 20
157.615723
 30
0.0
 10
173.372891
 20
161.609256
 30
0.0
 10
171.164371
 20
165.712838
 30
0.0
 10
170.683796
 20
169.557202
 30
0.0
 10
170.690659
 20
172.573252
 30
0.0
 10
171.234631
 20
176.740908
 30
0.0
 10
173.884028
 20
181.330673
 30
0.0
 10
178.519104
 20
185.665735
 30
0.0
 10
182.510343
 20
186.547367
 30
0.0
 10
184.422274
 20
186.969697
 30
0.0
 11
181.984599
 21
155.588321
 31
0.0
 11
177.370860
 21
157.879755
 31
0.0
 11
173.542065
 21
161.773979
 31
0.0
 11
171.179846
 21
166.577716
 31
0.0
 11
170.758731
 21
169.408207
 31
0.0
 11
170.766497
 21
172.714495
 31
0.0
 11
171.200956
 21
175.565082
 31
0.0
 11
174.144563
 21
181.146406
 31
0.0
 11
178.903987
 21
185.251851
 31
0.0
 11
184.422274
 21
186.969697
 31
0.0
  0
LINE
  5
1a6
100
AcDbEntity
  8
decoupe
 62
7
100
AcDbLine
 10
181.984602
 20
155.588321
 30
0.0
 11
181.984599
 21
155.588321
 31
0.0
  0
LINE
  5
1a7
100
AcDbEntity
  8
decoupe
 62
7
100
AcDbLine
 10
160.619141
 20
171.146174
 30
0.0
 11
160.619141
 21
187.302803
 31
0.0
  0
LINE
  5
1a8
100
AcDbEntity
  8
decoupe
 62
7
100
AcDbLine
 10
160.619141
 20
187.302803
 30
0.0
 11
164.347342
 21
187.302803
 31
0.0
  0
LINE
  5
1a9
100
AcDbEntity
  8
decoupe
 62
7
100
AcDbLine
 10
164.347342
 20
187.302803
 30
0.0
 11
168.075542
 21
187.302803
 31
0.0
  0
LINE
  5
1aa
100
AcDbEntity
  8
decoupe
 62
7
100
AcDbLine
 10
168.075542
 20
187.302803
 30
0.0
 11
168.149987
 21
171.422357
 31
0.0
  0
SPLINE
  5
1ab
100
AcDbEntity
  8
decoupe
 62
7
100
AcDbSpline
 70
0
 71
3
 72
22
 73
18
 74
16
 40
0.000000
 40
0.000000
 40
0.000000
 40
0.000000
 40
6.796063
 40
13.952431
 40
21.242246
 40
22.399798
 40
23.453403
 40
24.335492
 40
25.023966
 40
25.625968
 40
26.014914
 40
27.525481
 40
30.052339
 40
31.595261
 40
32.211023
 40
33.529961
 40
35.486878
 40
35.486878
 40
35.486878
 40
35.486878
 10
184.349839
 20
180.988126
 30
0.0
 10
182.412858
 20
179.639785
 30
0.0
 10
178.436205
 20
176.871619
 30
0.0
 10
177.537911
 20
169.129371
 30
0.0
 10
179.880046
 20
164.087705
 30
0.0
 10
182.326673
 20
162.065093
 30
0.0
 10
183.193407
 20
161.497293
 30
0.0
 10
184.007561
 20
161.168493
 30
0.0
 10
184.710983
 20
160.979999
 30
0.0
 10
185.223183
 20
160.776911
 30
0.0
 10
186.032594
 20
160.442389
 30
0.0
 10
185.877170
 20
158.556372
 30
0.0
 10
185.898115
 20
157.145904
 30
0.0
 10
186.237592
 20
154.959321
 30
0.0
 10
184.913596
 20
154.931005
 30
0.0
 10
183.698439
 20
155.169370
 30
0.0
 10
182.625532
 20
155.431645
 30
0.0
 10
181.984602
 20
155.588321
 30
0.0
 11
184.349839
 21
180.988126
 31
0.0
 11
179.342392
 21
176.393353
 31
0.0
 11
178.225598
 21
169.324663
 31
0.0
 11
181.476224
 21
162.799723
 31
0.0
 11
182.367190
 21
162.060734
 31
0.0
 11
183.258699
 21
161.499223
 31
0.0
 11
184.074331
 21
161.163325
 31
0.0
 11
184.732079
 21
160.959947
 31
0.0
 11
185.294958
 21
160.746465
 31
0.0
 11
185.641107
 21
160.569097
 31
0.0
 11
185.934821
 21
159.087360
 31
0.0
 11
186.009588
 21
156.561609
 31
0.0
 11
185.805008
 21
155.032309
 31
0.0
 11
185.194727
 21
154.950330
 31
0.0
 11
183.889540
 21
155.140283
 31
0.0
 11
181.984602
 21
155.588321
 31
0.0
  0
LINE
  5
1ac
100
AcDbEntity
  8
decoupe
 62
7
100
AcDbLine
 10
164.281341
 20
154.912207
 30
0.0
 11
160.619141
 21
154.989544
 31
0.0
  0
LINE
  5
1ad
100
AcDbEntity
  8
decoupe
 62
7
100
AcDbLine
 10
160.619141
 20
154.989544
 30
0.0
 11
160.619141
 21
171.146174
 31
0.0
  0
LINE
  5
1ae
100
AcDbEntity
  8
decoupe
 62
7
100
AcDbLine
 10
160.619141
 20
171.146174
 30
0.0
 11
160.619141
 21
171.146174
 31
0.0
  0
LINE
  5
1af
100
AcDbEntity
  8
decoupe
 62
7
100
AcDbLine
 10
130.811781
 20
171.146174
 30
0.0
 11
130.811781
 21
187.302803
 31
0.0
  0
LINE
  5
1b0
100
AcDbEntity
  8
decoupe
 62
7
100
AcDbLine
 10
130.811781
 20
187.302803
 30
0.0
 11
134.539982
 21
187.302803
 31
0.0
  0
LINE
  5
1b1
100
AcDbEntity
  8
decoupe
 62
7
100
AcDbLine
 10
134.539982
 20
187.302803
 30
0.0
 11
138.268182
 21
187.302803
 31
0.0
  0
LINE
  5
1b2
100
AcDbEntity
  8
decoupe
 62
7
100
AcDbLine
 10
138.268182
 20
187.302803
 30
0.0
 11
138.342627
 21
171.422357
 31
0.0
  0
SPLINE
  5
1b3
100
AcDbEntity
  8
decoupe
 62
7
100
AcDbSpline
 70
0
 71
3
 72
13
 73
9
 74
7
 40
0.000000
 40
0.000000
 40
0.000000
 40
0.000000
 40
8.047506
 40
13.879758
 40
16.234817
 40
16.699144
 40
17.893843
 40
20.087607
 40
20.087607
 40
20.087607
 40
20.087607
 10
168.149987
 20
171.422357
 30
0.0
 10
168.270821
 20
168.671006
 30
0.0
 10
168.479226
 20
163.925675
 30
0.0
 10
167.525191
 20
159.093907
 30
0.0
 10
168.731997
 20
155.443740
 30
0.0
 10
167.431500
 20
154.856857
 30
0.0
 10
166.138587
 20
154.924014
 30
0.0
 10
165.011222
 20
154.916847
 30
0.0
 10
164.281341
 20
154.912207
 30
0.0
 11
168.149987
 21
171.422357
 31
0.0
 11
168.168235
 21
163.374871
 31
0.0
 11
168.144522
 21
157.542668
 31
0.0
 11
168.083989
 21
155.188387
 31
0.0
 11
167.666621
 21
154.984907
 31
0.0
 11
166.475061
 21
154.898366
 31
0.0
 11
164.281341
 21
154.912207
 31
0.0
  0
LINE
  5
1b4
100
AcDbEntity
  8
decoupe
 62
7
100
AcDbLine
 10
134.473981
 20
154.912207
 30
0.0
 11
130.811781
 21
154.989544
 31
0.0
  0
LINE
  5
1b5
100
AcDbEntity
  8
decoupe
 62
7
100
AcDbLine
 10
130.811781
 20
154.989544
 30
0.0
 11
130.811781
 21
171.146174
 31
0.0
  0
LINE
  5
1b6
100
AcDbEntity
  8
decoupe
 62
7
100
AcDbLine
 10
130.811781
 20
171.146174
 30
0.0
 11
130.811781
 21
171.146174
 31
0.0
  0
SPLINE
  5
1b7
100
AcDbEntity
  8
decoupe
 62
7
100
AcDbSpline
 70
0
 71
3
 72
13
 73
9
 74
7
 40
0.000000
 40
0.000000
 40
0.000000
 40
0.000000
 40
8.047506
 40
13.879758
 40
16.234817
 40
16.699144
 40
17.893843
 40
20.087607
 40
20.087607
 40
20.087607
 40
20.087607
 10
138.342627
 20
171.422357
 30
0.0
 10
138.463461
 20
168.671006
 30
0.0
 10
138.671868
 20
163.925675
 30
0.0
 10
137.717833
 20
159.093907
 30
0.0
 10
138.924637
 20
155.443740
 30
0.0
 10
137.624140
 20
154.856857
 30
0.0
 10
136.331227
 20
154.924014
 30
0.0
 10
135.203861
 20
154.916847
 30
0.0
 10
134.473981
 20
154.912207
 30
0.0
 11
138.342627
 21
171.422357
 31
0.0
 11
138.360876
 21
163.374871
 31
0.0
 11
138.337163
 21
157.542668
 31
0.0
 11
138.276629
 21
155.188387
 31
0.0
 11
137.859261
 21
154.984907
 31
0.0
 11
136.667701
 21
154.898366
 31
0.0
 11
134.473981
 21
154.912207
 31
0.0
  0
LINE
  5
1b8
100
AcDbEntity
  8
decoupe
 62
7
100
AcDbLine
 10
125.381120
 20
187.388046
 30
0.0
 11
128.248969
 21
187.302803
 31
0.0
  0
LINE
  5
1b9
100
AcDbEntity
  8
decoupe
 62
7
100
AcDbLine
 10
128.248969
 20
187.302803
 30
0.0
 11
128.248969
 21
184.540985
 31
0.0
  0
LINE
  5
1ba
100
AcDbEntity
  8
decoupe
 62
7
100
AcDbLine
 10
128.248969
 20
184.540985
 30
0.0
 11
128.248969
 21
181.779170
 31
0.0
  0
LINE
  5
1bb
100
AcDbEntity
  8
decoupe
 62
7
100
AcDbLine
 10
128.248969
 20
181.779170
 30
0.0
 11
124.889071
 21
181.633021
 31
0.0
  0
SPLINE
  5
1bc
100
AcDbEntity
  8
decoupe
 62
7
100
AcDbSpline
 70
0
 71
3
 72
25
 73
21
 74
19
 40
0.000000
 40
0.000000
 40
0.000000
 40
0.000000
 40
0.200722
 40
0.436685
 40
0.691429
 40
2.025799
 40
4.286182
 40
7.528515
 40
10.546808
 40
12.834160
 40
14.556468
 40
14.943013
 40
15.492042
 40
16.462588
 40
19.485045
 40
22.325457
 40
25.224758
 40
30.587188
 40
36.033490
 40
43.372866
 40
43.372866
 40
43.372866
 40
43.372866
 10
109.600198
 20
155.139735
 30
0.0
 10
109.577237
 20
155.203694
 30
0.0
 10
109.527284
 20
155.342842
 30
0.0
 10
109.581983
 20
155.580014
 30
0.0
 10
109.931057
 20
156.079029
 30
0.0
 10
110.503525
 20
157.240093
 30
0.0
 10
111.048910
 20
159.461912
 30
0.0
 10
111.573422
 20
162.255426
 30
0.0
 10
112.136313
 20
165.032294
 30
0.0
 10
112.763455
 20
167.339513
 30
0.0
 10
113.596176
 20
168.518975
 30
0.0
 10
113.989311
 20
169.363314
 30
0.0
 10
113.675138
 20
169.981408
 30
0.0
 10
112.837820
 20
171.192208
 30
0.0
 10
111.662165
 20
173.200294
 30
0.0
 10
110.978380
 20
176.080715
 30
0.0
 10
111.129036
 20
179.794330
 30
0.0
 10
112.919726
 20
184.332476
 30
0.0
 10
118.624685
 20
187.340874
 30
0.0
 10
122.917126
 20
187.370843
 30
0.0
 10
125.381120
 20
187.388046
 30
0.0
 11
109.600198
 21
155.139735
 31
0.0
 11
109.549168
 21
155.333862
 31
0.0
 11
109.593223
 21
155.565675
 31
0.0
 11
109.722824
 21
155.784988
 31
0.0
 11
110.331666
 21
156.972361
 31
0.0
 11
110.953670
 21
159.145479
 31
0.0
 11
111.594426
 21
162.323868
 31
0.0
 11
112.224599
 21
165.275643
 31
0.0
 11
112.944600
 21
167.446721
 31
0.0
 11
113.790812
 21
168.946810
 31
0.0
 11
113.915331
 21
169.312750
 31
0.0
 11
113.740741
 21
169.833279
 31
0.0
 11
113.218990
 21
170.651653
 31
0.0
 11
111.777322
 21
173.308124
 31
0.0
 11
111.111744
 21
176.069455
 31
0.0
 11
111.214716
 21
178.966927
 31
0.0
 11
113.397553
 21
183.864975
 31
0.0
 11
118.079157
 21
186.647921
 31
0.0
 11
125.381120
 21
187.388046
 31
0.0
  0
LINE
  5
1bd
100
AcDbEntity
  8
decoupe
 62
7
100
AcDbLine
 10
125.381120
 20
172.733688
 30
0.0
 11
128.248969
 21
172.665173
 31
0.0
  0
LINE
  5
1be
100
AcDbEntity
  8
decoupe
 62
7
100
AcDbLine
 10
128.248969
 20
172.665173
 30
0.0
 11
128.248969
 21
169.765266
 31
0.0
  0
LINE
  5
1bf
100
AcDbEntity
  8
decoupe
 62
7
100
AcDbLine
 10
128.248969
 20
169.765266
 30
0.0
 11
128.248969
 21
166.865359
 31
0.0
  0
LINE
  5
1c0
100
AcDbEntity
  8
decoupe
 62
7
100
AcDbLine
 10
128.248969
 20
166.865359
 30
0.0
 11
125.040051
 21
166.700971
 31
0.0
  0
SPLINE
  5
1c1
100
AcDbEntity
  8
decoupe
 62
7
100
AcDbSpline
 70
0
 71
3
 72
19
 73
15
 74
13
 40
0.000000
 40
0.000000
 40
0.000000
 40
0.000000
 40
2.960098
 40
4.718507
 40
6.604972
 40
7.637577
 40
8.421932
 40
9.520938
 40
10.548828
 40
11.387169
 40
12.280796
 40
13.590859
 40
15.034398
 40
17.694581
 40
17.694581
 40
17.694581
 40
17.694581
 10
124.889071
 20
181.633021
 30
0.0
 10
123.905732
 20
181.613293
 30
0.0
 10
122.338252
 20
181.581845
 30
0.0
 10
120.152840
 20
180.780261
 30
0.0
 10
119.401479
 20
179.329335
 30
0.0
 10
118.804320
 20
178.246376
 30
0.0
 10
118.690861
 20
177.256540
 30
0.0
 10
118.918013
 20
176.305957
 30
0.0
 10
119.143395
 20
175.342228
 30
0.0
 10
119.591940
 20
174.519344
 30
0.0
 10
120.335079
 20
173.825142
 30
0.0
 10
121.308885
 20
173.050909
 30
0.0
 10
123.137667
 20
172.762380
 30
0.0
 10
124.498790
 20
172.744972
 30
0.0
 10
125.381120
 20
172.733688
 30
0.0
 11
124.889071
 21
181.633021
 31
0.0
 11
121.941512
 21
181.360848
 31
0.0
 11
120.339628
 21
180.635612
 31
0.0
 11
119.263575
 21
179.086141
 31
0.0
 11
118.836083
 21
178.146181
 31
0.0
 11
118.741302
 21
177.367574
 31
0.0
 11
118.922416
 21
176.283595
 31
0.0
 11
119.206783
 21
175.295822
 31
0.0
 11
119.616134
 21
174.564216
 31
0.0
 11
120.241576
 21
173.925944
 31
0.0
 11
121.317376
 21
173.178335
 31
0.0
 11
122.723575
 21
172.852130
 31
0.0
 11
125.381120
 21
172.733688
 31
0.0
  0
LINE
  5
1c2
100
AcDbEntity
  8
decoupe
 62
7
100
AcDbLine
 10
109.600198
 20
155.139735
 30
0.0
 11
109.600198
 21
155.139735
 31
0.0
  0
SPLINE
  5
1c3
100
AcDbEntity
  8
decoupe
 62
7
100
AcDbSpline
 70
0
 71
3
 72
19
 73
15
 74
13
 40
0.000000
 40
0.000000
 40
0.000000
 40
0.000000
 40
3.428445
 40
5.545230
 40
8.662223
 40
11.666371
 40
13.907646
 40
15.307205
 40
16.024320
 40
17.133347
 40
19.602682
 40
21.503222
 40
22.800226
 40
23.360134
 40
23.360134
 40
23.360134
 40
23.360134
 10
125.040051
 20
166.700971
 30
0.0
 10
123.865515
 20
166.716395
 30
0.0
 10
121.965797
 20
166.741343
 30
0.0
 10
119.502114
 20
164.799985
 30
0.0
 10
119.300338
 20
161.883131
 30
0.0
 10
118.754848
 20
159.190439
 30
0.0
 10
118.190710
 20
157.043492
 30
0.0
 10
117.640307
 20
155.681133
 30
0.0
 10
116.823900
 20
154.903229
 30
0.0
 10
115.314847
 20
154.871913
 30
0.0
 10
113.528474
 20
154.829881
 30
0.0
 10
111.637170
 20
154.891747
 30
0.0
 10
110.370927
 20
154.895999
 30
0.0
 10
109.778754
 20
155.083268
 30
0.0
 10
109.600198
 20
155.139735
 30
0.0
 11
125.040051
 21
166.700971
 31
0.0
 11
121.639742
 21
166.262645
 31
0.0
 11
120.009118
 21
164.912888
 31
0.0
 11
119.232914
 21
161.894088
 31
0.0
 11
118.671249
 21
158.942913
 31
0.0
 11
118.062128
 21
156.785996
 31
0.0
 11
117.436779
 21
155.533917
 31
0.0
 11
116.895432
 21
155.063601
 31
0.0
 11
115.801424
 21
154.881699
 31
0.0
 11
113.332274
 21
154.851456
 31
0.0
 11
111.432072
 21
154.887282
 31
0.0
 11
110.138921
 21
154.987170
 31
0.0
 11
109.600198
 21
155.139735
 31
0.0
  0
LINE
  5
1c4
100
AcDbEntity
  8
decoupe
 62
7
100
AcDbLine
 10
106.740116
 20
187.302803
 30
0.0
 11
106.670162
 21
154.992389
 31
0.0
  0
SPLINE
  5
1c5
100
AcDbEntity
  8
decoupe
 62
7
100
AcDbSpline
 70
0
 71
3
 72
10
 73
6
 74
4
 40
0.000000
 40
0.000000
 40
0.000000
 40
0.000000
 40
2.485468
 40
4.970936
 40
7.456404
 40
7.456404
 40
7.456404
 40
7.456404
 10
99.283712
 20
187.302803
 30
0.0
 10
100.112201
 20
187.302803
 30
0.0
 10
101.769180
 20
187.302803
 30
0.0
 10
104.254648
 20
187.302803
 30
0.0
 10
105.911627
 20
187.302803
 30
0.0
 10
106.740116
 20
187.302803
 30
0.0
 11
99.283712
 21
187.302803
 31
0.0
 11
101.769180
 21
187.302803
 31
0.0
 11
104.254648
 21
187.302803
 31
0.0
 11
106.740116
 21
187.302803
 31
0.0
  0
SPLINE
  5
1c6
100
AcDbEntity
  8
decoupe
 62
7
100
AcDbSpline
 70
0
 71
3
 72
10
 73
6
 74
4
 40
0.000000
 40
0.000000
 40
0.000000
 40
0.000000
 40
2.470124
 40
4.956726
 40
7.426373
 40
7.426373
 40
7.426373
 40
7.426373
 10
106.670162
 20
154.992389
 30
0.0
 10
105.846969
 20
154.973742
 30
0.0
 10
104.195091
 20
154.936323
 30
0.0
 10
101.719397
 20
154.944585
 30
0.0
 10
100.067589
 20
154.974588
 30
0.0
 10
99.244511
 20
154.989539
 30
0.0
 11
106.670162
 21
154.992389
 31
0.0
 11
104.200453
 21
154.947110
 31
0.0
 11
101.713853
 21
154.950768
 31
0.0
 11
99.244511
 21
154.989539
 31
0.0
  0
LINE
  5
1c7
100
AcDbEntity
  8
decoupe
 62
7
100
AcDbLine
 10
99.283712
 20
187.302798
 30
0.0
 11
99.283712
 21
187.302803
 31
0.0
  0
SPLINE
  5
1c8
100
AcDbEntity
  8
decoupe
 62
7
100
AcDbSpline
 70
0
 71
3
 72
10
 73
6
 74
4
 40
0.000000
 40
0.000000
 40
0.000000
 40
0.000000
 40
10.771091
 40
21.542194
 40
32.313285
 40
32.313285
 40
32.313285
 40
32.313285
 10
99.244511
 20
154.989539
 30
0.0
 10
99.246931
 20
158.579902
 30
0.0
 10
99.251771
 20
165.760633
 30
0.0
 10
99.276453
 20
176.531704
 30
0.0
 10
99.281292
 20
183.712434
 30
0.0
 10
99.283712
 20
187.302798
 30
0.0
 11
99.244511
 21
154.989539
 31
0.0
 11
99.254674
 21
165.760625
 31
0.0
 11
99.273549
 21
176.531711
 31
0.0
 11
99.283712
 21
187.302798
 31
0.0
  0
LINE
  5
1c9
100
AcDbEntity
  8
decoupe
 62
7
100
AcDbLine
 10
94.453292
 20
154.874403
 30
0.0
 11
70.068079
 21
154.989375
 31
0.0
  0
SPLINE
  5
1ca
100
AcDbEntity
  8
decoupe
 62
7
100
AcDbSpline
 70
0
 71
3
 72
10
 73
6
 74
4
 40
0.000000
 40
0.000000
 40
0.000000
 40
0.000000
 40
10.809596
 40
21.618993
 40
32.428556
 40
32.428556
 40
32.428556
 40
32.428556
 10
94.445023
 20
187.302716
 30
0.0
 10
94.470227
 20
183.699587
 30
0.0
 10
94.520635
 20
176.493395
 30
0.0
 10
94.497617
 20
165.683805
 30
0.0
 10
94.468067
 20
158.477556
 30
0.0
 10
94.453292
 20
154.874403
 30
0.0
 11
94.445023
 21
187.302716
 31
0.0
 11
94.504197
 21
176.493282
 31
0.0
 11
94.494066
 21
165.683890
 31
0.0
 11
94.453292
 21
154.874403
 31
0.0
  0
SPLINE
  5
1cb
100
AcDbEntity
  8
decoupe
 62
7
100
AcDbSpline
 70
0
 71
3
 72
10
 73
6
 74
4
 40
0.000000
 40
0.000000
 40
0.000000
 40
0.000000
 40
1.933296
 40
3.866591
 40
5.799887
 40
5.799887
 40
5.799887
 40
5.799887
 10
70.068079
 20
154.989375
 30
0.0
 10
70.068079
 20
155.633807
 30
0.0
 10
70.068079
 20
156.922671
 30
0.0
 10
70.068079
 20
158.855966
 30
0.0
 10
70.068079
 20
160.144830
 30
0.0
 10
70.068079
 20
160.789262
 30
0.0
 11
70.068079
 21
154.989375
 31
0.0
 11
70.068079
 21
156.922671
 31
0.0
 11
70.068079
 21
158.855966
 31
0.0
 11
70.068079
 21
160.789262
 31
0.0
  0
LINE
  5
1cc
100
AcDbEntity
  8
decoupe
 62
7
100
AcDbLine
 10
86.871878
 20
160.974470
 30
0.0
 11
86.917076
 21
169.067412
 31
0.0
  0
SPLINE
  5
1cd
100
AcDbEntity
  8
decoupe
 62
7
100
AcDbSpline
 70
0
 71
3
 72
10
 73
6
 74
4
 40
0.000000
 40
0.000000
 40
0.000000
 40
0.000000
 40
5.601610
 40
11.203216
 40
16.804826
 40
16.804826
 40
16.804826
 40
16.804826
 10
70.068079
 20
160.789262
 30
0.0
 10
71.935198
 20
160.807038
 30
0.0
 10
75.669435
 20
160.842591
 30
0.0
 10
81.270668
 20
160.907628
 30
0.0
 10
85.004808
 20
160.952189
 30
0.0
 10
86.871878
 20
160.974470
 30
0.0
 11
70.068079
 21
160.789262
 31
0.0
 11
75.669416
 21
160.844543
 31
0.0
 11
81.270663
 21
160.907929
 31
0.0
 11
86.871878
 21
160.974470
 31
0.0
  0
SPLINE
  5
1ce
100
AcDbEntity
  8
decoupe
 62
7
100
AcDbSpline
 70
0
 71
3
 72
10
 73
6
 74
4
 40
0.000000
 40
0.000000
 40
0.000000
 40
0.000000
 40
5.233979
 40
10.467950
 40
15.701927
 40
15.701927
 40
15.701927
 40
15.701927
 10
86.917076
 20
169.067412
 30
0.0
 10
85.172419
 20
169.071056
 30
0.0
 10
81.683109
 20
169.078343
 30
0.0
 10
76.449131
 20
169.077965
 30
0.0
 10
72.959815
 20
169.075709
 30
0.0
 10
71.215157
 20
169.074581
 30
0.0
 11
86.917076
 21
169.067412
 31
0.0
 11
81.683105
 21
169.076458
 31
0.0
 11
76.449133
 21
169.077464
 31
0.0
 11
71.215157
 21
169.074581
 31
0.0
  0
SPLINE
  5
1cf
100
AcDbEntity
  8
decoupe
 62
7
100
AcDbSpline
 70
0
 71
3
 72
10
 73
6
 74
4
 40
0.000000
 40
0.000000
 40
0.000000
 40
0.000000
 40
1.933296
 40
3.866591
 40
5.799887
 40
5.799887
 40
5.799887
 40
5.799887
 10
71.215157
 20
169.074581
 30
0.0
 10
71.215157
 20
169.719013
 30
0.0
 10
71.215157
 20
171.007877
 30
0.0
 10
71.215157
 20
172.941172
 30
0.0
 10
71.215157
 20
174.230036
 30
0.0
 10
71.215157
 20
174.874468
 30
0.0
 11
71.215157
 21
169.074581
 31
0.0
 11
71.215157
 21
171.007877
 31
0.0
 11
71.215157
 21
172.941172
 31
0.0
 11
71.215157
 21
174.874468
 31
0.0
  0
LINE
  5
1d0
100
AcDbEntity
  8
decoupe
 62
7
100
AcDbLine
 10
86.911013
 20
174.981955
 30
0.0
 11
86.906611
 21
181.414087
 31
0.0
  0
SPLINE
  5
1d1
100
AcDbEntity
  8
decoupe
 62
7
100
AcDbSpline
 70
0
 71
3
 72
10
 73
6
 74
4
 40
0.000000
 40
0.000000
 40
0.000000
 40
0.000000
 40
5.232115
 40
10.464187
 40
15.696303
 40
15.696303
 40
15.696303
 40
15.696303
 10
71.215157
 20
174.874468
 30
0.0
 10
72.959067
 20
174.896164
 30
0.0
 10
76.446873
 20
174.939556
 30
0.0
 10
81.678950
 20
174.963785
 30
0.0
 10
85.166987
 20
174.975898
 30
0.0
 10
86.911013
 20
174.981955
 30
0.0
 11
71.215157
 21
174.874468
 31
0.0
 11
76.446948
 21
174.932746
 31
0.0
 11
81.678933
 21
174.962775
 31
0.0
 11
86.911013
 21
174.981955
 31
0.0
  0
SPLINE
  5
1d2
100
AcDbEntity
  8
decoupe
 62
7
100
AcDbSpline
 70
0
 71
3
 72
10
 73
6
 74
4
 40
0.000000
 40
0.000000
 40
0.000000
 40
0.000000
 40
5.612998
 40
11.225888
 40
16.838857
 40
16.838857
 40
16.838857
 40
16.838857
 10
86.906611
 20
181.414087
 30
0.0
 10
85.035605
 20
181.413017
 30
0.0
 10
81.293630
 20
181.410877
 30
0.0
 10
75.680779
 20
181.450324
 30
0.0
 10
71.938993
 20
181.485331
 30
0.0
 10
70.068087
 20
181.502835
 30
0.0
 11
86.906611
 21
181.414087
 31
0.0
 11
81.293614
 21
181.417986
 31
0.0
 11
75.680830
 21
181.452501
 31
0.0
 11
70.068087
 21
181.502835
 31
0.0
  0
SPLINE
  5
1d3
100
AcDbEntity
  8
decoupe
 62
7
100
AcDbSpline
 70
0
 71
3
 72
10
 73
6
 74
4
 40
0.000000
 40
0.000000
 40
0.000000
 40
0.000000
 40
1.945790
 40
3.891581
 40
5.837372
 40
5.837372
 40
5.837372
 40
5.837372
 10
70.068087
 20
181.502835
 30
0.0
 10
70.068087
 20
182.151432
 30
0.0
 10
70.068087
 20
183.448625
 30
0.0
 10
70.068087
 20
185.394416
 30
0.0
 10
70.068087
 20
186.691610
 30
0.0
 10
70.068087
 20
187.340206
 30
0.0
 11
70.068087
 21
181.502835
 31
0.0
 11
70.068087
 21
183.448625
 31
0.0
 11
70.068087
 21
185.394416
 31
0.0
 11
70.068087
 21
187.340206
 31
0.0
  0
LINE
  5
1d4
100
AcDbEntity
  8
decoupe
 62
7
100
AcDbLine
 10
94.445023
 20
187.302716
 30
0.0
 11
94.445023
 21
187.302716
 31
0.0
  0
LINE
  5
1d5
100
AcDbEntity
  8
decoupe
 62
7
100
AcDbLine
 10
41.380867
 20
181.203191
 30
0.0
 11
41.324959
 21
184.444115
 31
0.0
  0
LINE
  5
1d6
100
AcDbEntity
  8
decoupe
 62
7
100
AcDbLine
 10
41.324959
 20
184.444115
 30
0.0
 11
41.408192
 21
187.026559
 31
0.0
  0
LINE
  5
1d7
100
AcDbEntity
  8
decoupe
 62
7
100
AcDbLine
 10
41.408192
 20
187.026559
 30
0.0
 11
53.883295
 21
187.026559
 31
0.0
  0
LINE
  5
1d8
100
AcDbEntity
  8
decoupe
 62
7
100
AcDbLine
 10
53.883295
 20
187.026559
 30
0.0
 11
66.358400
 21
187.026559
 31
0.0
  0
LINE
  5
1d9
100
AcDbEntity
  8
decoupe
 62
7
100
AcDbLine
 10
66.358400
 20
187.026559
 30
0.0
 11
66.441083
 21
184.287569
 31
0.0
  0
SPLINE
  5
1da
100
AcDbEntity
  8
decoupe
 62
7
100
AcDbSpline
 70
0
 71
3
 72
10
 73
6
 74
4
 40
0.000000
 40
0.000000
 40
0.000000
 40
0.000000
 40
8.125664
 40
16.251315
 40
24.376973
 40
24.376973
 40
24.376973
 40
24.376973
 10
70.068087
 20
187.340206
 30
0.0
 10
72.776632
 20
187.332917
 30
0.0
 10
78.193717
 20
187.318337
 30
0.0
 10
86.319367
 20
187.305394
 30
0.0
 10
91.736470
 20
187.303609
 30
0.0
 10
94.445023
 20
187.302716
 30
0.0
 11
70.068087
 21
187.340206
 31
0.0
 11
78.193725
 21
187.319825
 31
0.0
 11
86.319366
 21
187.307105
 31
0.0
 11
94.445023
 21
187.302716
 31
0.0
  0
LINE
  5
1db
100
AcDbEntity
  8
decoupe
 62
7
100
AcDbLine
 10
57.584707
 20
181.108711
 30
0.0
 11
57.542814
 21
167.693786
 31
0.0
  0
SPLINE
  5
1dc
100
AcDbEntity
  8
decoupe
 62
7
100
AcDbSpline
 70
0
 71
3
 72
13
 73
9
 74
7
 40
0.000000
 40
0.000000
 40
0.000000
 40
0.000000
 40
1.623070
 40
2.572506
 40
3.020225
 40
4.254714
 40
7.282572
 40
11.594071
 40
11.594071
 40
11.594071
 40
11.594071
 10
66.441083
 20
184.287569
 30
0.0
 10
66.445681
 20
183.745501
 30
0.0
 10
66.452969
 20
182.886342
 30
0.0
 10
66.457843
 20
181.887047
 30
0.0
 10
66.067912
 20
181.010193
 30
0.0
 10
64.160952
 20
181.448443
 30
0.0
 10
61.549639
 20
181.020416
 30
0.0
 10
59.051964
 20
181.076037
 30
0.0
 10
57.584707
 20
181.108711
 30
0.0
 11
66.441083
 21
184.287569
 31
0.0
 11
66.453629
 21
182.664548
 31
0.0
 11
66.362013
 21
181.719543
 31
0.0
 11
66.153899
 21
181.323133
 31
0.0
 11
64.922893
 21
181.230461
 31
0.0
 11
61.895943
 21
181.156325
 31
0.0
 11
57.584707
 21
181.108711
 31
0.0
  0
LINE
  5
1dd
100
AcDbEntity
  8
decoupe
 62
7
100
AcDbLine
 10
53.673835
 20
154.912204
 30
0.0
 11
50.011559
 21
154.989375
 31
0.0
  0
LINE
  5
1de
100
AcDbEntity
  8
decoupe
 62
7
100
AcDbLine
 10
50.011559
 20
154.989375
 30
0.0
 11
50.011559
 21
167.417626
 31
0.0
  0
LINE
  5
1df
100
AcDbEntity
  8
decoupe
 62
7
100
AcDbLine
 10
50.011559
 20
167.417626
 30
0.0
 11
50.050144
 21
181.089419
 31
0.0
  0
LINE
  5
1e0
100
AcDbEntity
  8
decoupe
 62
7
100
AcDbLine
 10
50.050144
 20
181.089419
 30
0.0
 11
41.380867
 21
181.203191
 31
0.0
  0
SPLINE
  5
1e1
100
AcDbEntity
  8
decoupe
 62
7
100
AcDbSpline
 70
0
 71
3
 72
13
 73
9
 74
7
 40
0.000000
 40
0.000000
 40
0.000000
 40
0.000000
 40
6.169474
 40
10.662140
 40
12.506039
 40
12.970537
 40
14.165305
 40
16.358989
 40
16.358989
 40
16.358989
 40
16.358989
 10
57.542814
 20
167.693786
 30
0.0
 10
57.619380
 20
165.587118
 30
0.0
 10
57.751701
 20
161.946354
 30
0.0
 10
57.070244
 20
158.203332
 30
0.0
 10
57.975931
 20
155.358798
 30
0.0
 10
56.818059
 20
154.860448
 30
0.0
 10
55.535003
 20
154.921622
 30
0.0
 10
54.405242
 20
154.915905
 30
0.0
 10
53.673835
 20
154.912204
 30
0.0
 11
57.542814
 21
167.693786
 31
0.0
 11
57.533685
 21
161.524319
 31
0.0
 11
57.523667
 21
157.031664
 31
0.0
 11
57.476669
 21
155.188364
 31
0.0
 11
57.059106
 21
154.984897
 31
0.0
 11
55.867476
 21
154.898363
 31
0.0
 11
53.673835
 21
154.912204
 31
0.0
  0
LINE
  5
1e2
100
AcDbEntity
  8
decoupe
 62
7
100
AcDbLine
 10
252.210353
 20
187.386350
 30
0.0
 11
254.934807
 21
187.302803
 31
0.0
  0
LINE
  5
1e3
100
AcDbEntity
  8
decoupe
 62
7
100
AcDbLine
 10
254.934807
 20
187.302803
 30
0.0
 11
254.934807
 21
184.402894
 31
0.0
  0
LINE
  5
1e4
100
AcDbEntity
  8
decoupe
 62
7
100
AcDbLine
 10
254.934807
 20
184.402894
 30
0.0
 11
254.934807
 21
181.502987
 31
0.0
  0
LINE
  5
1e5
100
AcDbEntity
  8
decoupe
 62
7
100
AcDbLine
 10
254.934807
 20
181.502987
 30
0.0
 11
251.574910
 21
181.356841
 31
0.0
  0
SPLINE
  5
1e6
100
AcDbEntity
  8
decoupe
 62
7
100
AcDbSpline
 70
0
 71
3
 72
16
 73
12
 74
10
 40
0.000000
 40
0.000000
 40
0.000000
 40
0.000000
 40
3.826273
 40
7.278990
 40
10.394599
 40
15.425840
 40
20.368343
 40
24.829166
 40
28.189645
 40
31.789167
 40
36.375148
 40
36.375148
 40
36.375148
 40
36.375148
 10
247.621798
 20
166.184182
 30
0.0
 10
246.370207
 20
166.459380
 30
0.0
 10
243.989218
 20
166.982909
 30
0.0
 10
240.950926
 20
168.791954
 30
0.0
 10
238.427771
 20
171.835670
 30
0.0
 10
237.479700
 20
176.271083
 30
0.0
 10
238.137004
 20
181.149875
 30
0.0
 10
240.710947
 20
184.800388
 30
0.0
 10
244.151392
 20
186.592836
 30
0.0
 10
247.940515
 20
187.442017
 30
0.0
 10
250.677141
 20
187.406339
 30
0.0
 10
252.210353
 20
187.386350
 30
0.0
 11
247.621798
 21
166.184182
 31
0.0
 11
243.937038
 21
167.215160
 31
0.0
 11
240.988102
 21
169.010997
 31
0.0
 11
239.017339
 21
171.424109
 31
0.0
 11
237.772674
 21
176.298963
 31
0.0
 11
238.564520
 21
181.177622
 31
0.0
 11
241.186202
 21
184.786739
 31
0.0
 11
244.123083
 21
186.420003
 31
0.0
 11
247.626515
 21
187.246150
 31
0.0
 11
252.210353
 21
187.386350
 31
0.0
  0
LINE
  5
1e7
100
AcDbEntity
  8
decoupe
 62
7
100
AcDbLine
 10
251.621950
 20
172.250902
 30
0.0
 11
254.934807
 21
172.112810
 31
0.0
  0
LINE
  5
1e8
100
AcDbEntity
  8
decoupe
 62
7
100
AcDbLine
 10
254.934807
 20
172.112810
 30
0.0
 11
255.017507
 21
169.370652
 31
0.0
  0
SPLINE
  5
1e9
100
AcDbEntity
  8
decoupe
 62
7
100
AcDbSpline
 70
0
 71
3
 72
19
 73
15
 74
13
 40
0.000000
 40
0.000000
 40
0.000000
 40
0.000000
 40
2.937328
 40
4.692956
 40
6.582949
 40
7.540138
 40
8.297233
 40
9.168653
 40
9.933897
 40
10.739775
 40
11.421729
 40
12.992870
 40
14.684012
 40
17.511702
 40
17.511702
 40
17.511702
 40
17.511702
 10
251.574910
 20
181.356841
 30
0.0
 10
250.597961
 20
181.337026
 30
0.0
 10
249.037094
 20
181.305367
 30
0.0
 10
246.868142
 20
180.515713
 30
0.0
 10
246.075093
 20
179.118665
 30
0.0
 10
245.501758
 20
178.066500
 30
0.0
 10
245.325249
 20
177.206510
 30
0.0
 10
245.415665
 20
176.405909
 30
0.0
 10
245.600789
 20
175.613402
 30
0.0
 10
245.847935
 20
174.900644
 30
0.0
 10
246.299092
 20
173.989328
 30
0.0
 10
247.157052
 20
172.909789
 30
0.0
 10
249.183141
 20
172.330634
 30
0.0
 10
250.683248
 20
172.281591
 30
0.0
 10
251.621950
 20
172.250902
 30
0.0
 11
251.574910
 21
181.356841
 31
0.0
 11
248.649794
 21
181.089264
 31
0.0
 11
247.045305
 21
180.376633
 31
0.0
 11
245.930968
 21
178.850093
 31
0.0
 11
245.518462
 21
177.986350
 31
0.0
 11
245.370375
 21
177.243880
 31
0.0
 11
245.437316
 21
176.375035
 31
0.0
 11
245.610345
 21
175.629609
 31
0.0
 11
245.878026
 21
174.869487
 31
0.0
 11
246.182405
 21
174.259229
 31
0.0
 11
247.218095
 21
173.077776
 31
0.0
 11
248.804561
 21
172.492039
 31
0.0
 11
251.621950
 21
172.250902
 31
0.0
  0
LINE
  5
1ea
100
AcDbEntity
  8
decoupe
 62
7
100
AcDbLine
 10
247.621798
 20
166.184182
 30
0.0
 11
247.621798
 21
166.184182
 31
0.0
  0
SPLINE
  5
1eb
100
AcDbEntity
  8
decoupe
 62
7
100
AcDbSpline
 70
0
 71
3
 72
13
 73
9
 74
7
 40
0.000000
 40
0.000000
 40
0.000000
 40
0.000000
 40
1.431403
 40
2.547864
 40
3.110850
 40
4.509994
 40
7.383103
 40
10.491259
 40
10.491259
 40
10.491259
 40
10.491259
 10
255.017507
 20
169.370652
 30
0.0
 10
255.031944
 20
168.888284
 30
0.0
 10
255.057641
 20
168.029680
 30
0.0
 10
255.005537
 20
167.042732
 30
0.0
 10
255.038788
 20
165.883691
 30
0.0
 10
252.847658
 20
166.012440
 30
0.0
 10
250.725291
 20
165.820910
 30
0.0
 10
248.683047
 20
166.059960
 30
0.0
 10
247.621798
 20
166.184182
 30
0.0
 11
255.017507
 21
169.370652
 31
0.0
 11
255.039238
 21
167.939414
 31
0.0
 11
255.016714
 21
166.823180
 31
0.0
 11
254.954811
 21
166.263608
 31
0.0
 11
253.591474
 21
165.949100
 31
0.0
 11
250.718533
 21
165.917982
 31
0.0
 11
247.621798
 21
166.184182
 31
0.0
  0
LINE
  5
1ec
100
AcDbEntity
  8
decoupe
 62
7
100
AcDbLine
 10
154.041342
 20
187.286502
 30
0.0
 11
158.056326
 21
187.302787
 31
0.0
  0
LINE
  5
1ed
100
AcDbEntity
  8
decoupe
 62
7
100
AcDbLine
 10
158.056326
 20
187.302787
 30
0.0
 11
158.056326
 21
184.402877
 31
0.0
  0
LINE
  5
1ee
100
AcDbEntity
  8
decoupe
 62
7
100
AcDbLine
 10
158.056326
 20
184.402877
 30
0.0
 11
158.056326
 21
181.502970
 31
0.0
  0
LINE
  5
1ef
100
AcDbEntity
  8
decoupe
 62
7
100
AcDbLine
 10
158.056326
 20
181.502970
 30
0.0
 11
154.758303
 21
181.359017
 31
0.0
  0
SPLINE
  5
1f0
100
AcDbEntity
  8
decoupe
 62
7
100
AcDbSpline
 70
0
 71
3
 72
19
 73
15
 74
13
 40
0.000000
 40
0.000000
 40
0.000000
 40
0.000000
 40
2.555828
 40
4.883677
 40
7.251570
 40
9.770799
 40
12.238188
 40
15.244166
 40
19.045593
 40
22.238677
 40
25.623636
 40
28.086345
 40
30.772064
 40
34.641143
 40
34.641143
 40
34.641143
 40
34.641143
 10
150.080077
 20
166.294438
 30
0.0
 10
149.246036
 20
166.479156
 30
0.0
 10
147.652351
 20
166.832116
 30
0.0
 10
145.458282
 20
167.905727
 30
0.0
 10
143.560434
 20
169.396433
 30
0.0
 10
141.922973
 20
171.272065
 30
0.0
 10
141.007511
 20
173.833706
 30
0.0
 10
140.832264
 20
176.932577
 30
0.0
 10
141.061491
 20
180.296547
 30
0.0
 10
142.615977
 20
183.512272
 30
0.0
 10
145.024836
 20
185.427530
 30
0.0
 10
147.570115
 20
186.743358
 30
0.0
 10
150.567909
 20
187.259421
 30
0.0
 10
152.752092
 20
187.276451
 30
0.0
 10
154.041342
 20
187.286502
 30
0.0
 11
150.080077
 21
166.294438
 31
0.0
 11
147.609741
 21
166.949952
 31
0.0
 11
145.516006
 21
167.967378
 31
0.0
 11
143.646587
 21
169.420715
 31
0.0
 11
142.049021
 21
171.368610
 31
0.0
 11
141.175585
 21
173.676232
 31
0.0
 11
140.902800
 21
176.669807
 31
0.0
 11
141.337498
 21
180.446298
 31
0.0
 11
142.768090
 21
183.300977
 31
0.0
 11
145.332930
 21
185.509947
 31
0.0
 11
147.543848
 21
186.594740
 31
0.0
 11
150.175366
 21
187.131581
 31
0.0
 11
154.041342
 21
187.286502
 31
0.0
  0
LINE
  5
1f1
100
AcDbEntity
  8
decoupe
 62
7
100
AcDbLine
 10
154.758303
 20
172.250890
 30
0.0
 11
158.056326
 21
172.112799
 31
0.0
  0
LINE
  5
1f2
100
AcDbEntity
  8
decoupe
 62
7
100
AcDbLine
 10
158.056326
 20
172.112799
 30
0.0
 11
158.139028
 21
169.370641
 31
0.0
  0
SPLINE
  5
1f3
100
AcDbEntity
  8
decoupe
 62
7
100
AcDbSpline
 70
0
 71
3
 72
16
 73
12
 74
10
 40
0.000000
 40
0.000000
 40
0.000000
 40
0.000000
 40
3.056402
 40
4.871230
 40
6.582769
 40
9.002037
 40
11.363052
 40
13.708526
 40
14.493190
 40
15.909152
 40
17.658416
 40
17.658416
 40
17.658416
 40
17.658416
 10
154.758303
 20
181.359017
 30
0.0
 10
153.744927
 20
181.326370
 30
0.0
 10
152.129830
 20
181.274338
 30
0.0
 10
149.935721
 20
180.576784
 30
0.0
 10
148.804924
 20
178.837140
 30
0.0
 10
148.311215
 20
176.652575
 30
0.0
 10
149.016392
 20
174.329974
 30
0.0
 10
150.309333
 20
172.789050
 30
0.0
 10
151.817176
 20
172.488293
 30
0.0
 10
153.120948
 20
172.343341
 30
0.0
 10
154.175502
 20
172.283797
 30
0.0
 10
154.758303
 20
172.250890
 30
0.0
 11
154.758303
 21
181.359017
 31
0.0
 11
151.714815
 21
181.078347
 31
0.0
 11
150.034968
 21
180.391532
 31
0.0
 11
149.020468
 21
179.013070
 31
0.0
 11
148.521066
 21
176.645909
 31
0.0
 11
149.179598
 21
174.378592
 31
0.0
 11
150.845946
 21
172.727976
 31
0.0
 11
151.607340
 21
172.538300
 31
0.0
 11
153.012890
 21
172.366902
 31
0.0
 11
154.758303
 21
172.250890
 31
0.0
  0
LINE
  5
1f4
100
AcDbEntity
  8
decoupe
 62
7
100
AcDbLine
 10
150.080077
 20
166.294427
 30
0.0
 11
150.080077
 21
166.294438
 31
0.0
  0
SPLINE
  5
1f5
100
AcDbEntity
  8
decoupe
 62
7
100
AcDbSpline
 70
0
 71
3
 72
13
 73
9
 74
7
 40
0.000000
 40
0.000000
 40
0.000000
 40
0.000000
 40
1.431403
 40
2.547864
 40
3.110850
 40
4.685016
 40
7.866485
 40
11.161137
 40
11.161137
 40
11.161137
 40
11.161137
 10
158.139028
 20
169.370641
 30
0.0
 10
158.152971
 20
168.888627
 30
0.0
 10
158.177789
 20
168.030653
 30
0.0
 10
158.130346
 20
167.040366
 30
0.0
 10
158.152312
 20
165.824867
 30
0.0
 10
155.708139
 20
166.024403
 30
0.0
 10
153.410361
 20
165.829069
 30
0.0
 10
151.203031
 20
166.137511
 30
0.0
 10
150.080077
 20
166.294427
 30
0.0
 11
158.139028
 21
169.370641
 31
0.0
 11
158.160759
 21
167.939403
 31
0.0
 11
158.138235
 21
166.823169
 31
0.0
 11
158.076330
 21
166.263597
 31
0.0
 11
156.537505
 21
165.931911
 31
0.0
 11
153.356059
 21
165.944177
 31
0.0
 11
150.080077
 21
166.294427
 31
0.0
  0
LINE
  5
1f6
100
AcDbEntity
  8
decoupe
 62
7
100
AcDbLine
 10
38.155507
 20
154.877866
 30
0.0
 11
13.770294
 21
154.992838
 31
0.0
  0
SPLINE
  5
1f7
100
AcDbEntity
  8
decoupe
 62
7
100
AcDbSpline
 70
0
 71
3
 72
10
 73
6
 74
4
 40
0.000000
 40
0.000000
 40
0.000000
 40
0.000000
 40
10.809596
 40
21.618993
 40
32.428556
 40
32.428556
 40
32.428556
 40
32.428556
 10
38.147238
 20
187.306179
 30
0.0
 10
38.172443
 20
183.703050
 30
0.0
 10
38.222851
 20
176.496858
 30
0.0
 10
38.199832
 20
165.687268
 30
0.0
 10
38.170283
 20
158.481018
 30
0.0
 10
38.155507
 20
154.877866
 30
0.0
 11
38.147238
 21
187.306179
 31
0.0
 11
38.206412
 21
176.496745
 31
0.0
 11
38.196281
 21
165.687353
 31
0.0
 11
38.155507
 21
154.877866
 31
0.0
  0
SPLINE
  5
1f8
100
AcDbEntity
  8
decoupe
 62
7
100
AcDbSpline
 70
0
 71
3
 72
10
 73
6
 74
4
 40
0.000000
 40
0.000000
 40
0.000000
 40
0.000000
 40
1.933296
 40
3.866591
 40
5.799887
 40
5.799887
 40
5.799887
 40
5.799887
 10
13.770294
 20
154.992838
 30
0.0
 10
13.770294
 20
155.637270
 30
0.0
 10
13.770294
 20
156.926133
 30
0.0
 10
13.770294
 20
158.859429
 30
0.0
 10
13.770294
 20
160.148293
 30
0.0
 10
13.770294
 20
160.792725
 30
0.0
 11
13.770294
 21
154.992838
 31
0.0
 11
13.770294
 21
156.926133
 31
0.0
 11
13.770294
 21
158.859429
 31
0.0
 11
13.770294
 21
160.792725
 31
0.0
  0
LINE
  5
1f9
100
AcDbEntity
  8
decoupe
 62
7
100
AcDbLine
 10
30.574093
 20
160.977933
 30
0.0
 11
30.619291
 21
169.070875
 31
0.0
  0
SPLINE
  5
1fa
100
AcDbEntity
  8
decoupe
 62
7
100
AcDbSpline
 70
0
 71
3
 72
10
 73
6
 74
4
 40
0.000000
 40
0.000000
 40
0.000000
 40
0.000000
 40
5.601610
 40
11.203216
 40
16.804826
 40
16.804826
 40
16.804826
 40
16.804826
 10
13.770294
 20
160.792725
 30
0.0
 10
15.637413
 20
160.810501
 30
0.0
 10
19.371650
 20
160.846054
 30
0.0
 10
24.972883
 20
160.911091
 30
0.0
 10
28.707023
 20
160.955652
 30
0.0
 10
30.574093
 20
160.977933
 30
0.0
 11
13.770294
 21
160.792725
 31
0.0
 11
19.371630
 21
160.848005
 31
0.0
 11
24.972878
 21
160.911392
 31
0.0
 11
30.574093
 21
160.977933
 31
0.0
  0
SPLINE
  5
1fb
100
AcDbEntity
  8
decoupe
 62
7
100
AcDbSpline
 70
0
 71
3
 72
10
 73
6
 74
4
 40
0.000000
 40
0.000000
 40
0.000000
 40
0.000000
 40
5.233979
 40
10.467950
 40
15.701928
 40
15.701928
 40
15.701928
 40
15.701928
 10
30.619291
 20
169.070875
 30
0.0
 10
28.874634
 20
169.074519
 30
0.0
 10
25.385324
 20
169.081806
 30
0.0
 10
20.151346
 20
169.081428
 30
0.0
 10
16.662030
 20
169.079172
 30
0.0
 10
14.917372
 20
169.078044
 30
0.0
 11
30.619291
 21
169.070875
 31
0.0
 11
25.385320
 21
169.079921
 31
0.0
 11
20.151348
 21
169.080927
 31
0.0
 11
14.917372
 21
169.078044
 31
0.0
  0
SPLINE
  5
1fc
100
AcDbEntity
  8
decoupe
 62
7
100
AcDbSpline
 70
0
 71
3
 72
10
 73
6
 74
4
 40
0.000000
 40
0.000000
 40
0.000000
 40
0.000000
 40
1.933296
 40
3.866591
 40
5.799887
 40
5.799887
 40
5.799887
 40
5.799887
 10
14.917372
 20
169.078044
 30
0.0
 10
14.917372
 20
169.722476
 30
0.0
 10
14.917372
 20
171.011339
 30
0.0
 10
14.917372
 20
172.944635
 30
0.0
 10
14.917372
 20
174.233499
 30
0.0
 10
14.917372
 20
174.877931
 30
0.0
 11
14.917372
 21
169.078044
 31
0.0
 11
14.917372
 21
171.011339
 31
0.0
 11
14.917372
 21
172.944635
 31
0.0
 11
14.917372
 21
174.877931
 31
0.0
  0
LINE
  5
1fd
100
AcDbEntity
  8
decoupe
 62
7
100
AcDbLine
 10
30.613229
 20
174.985418
 30
0.0
 11
30.608826
 21
181.417550
 31
0.0
  0
SPLINE
  5
1fe
100
AcDbEntity
  8
decoupe
 62
7
100
AcDbSpline
 70
0
 71
3
 72
10
 73
6
 74
4
 40
0.000000
 40
0.000000
 40
0.000000
 40
0.000000
 40
5.232115
 40
10.464187
 40
15.696303
 40
15.696303
 40
15.696303
 40
15.696303
 10
14.917372
 20
174.877931
 30
0.0
 10
16.661282
 20
174.899627
 30
0.0
 10
20.149088
 20
174.943019
 30
0.0
 10
25.381165
 20
174.967248
 30
0.0
 10
28.869202
 20
174.979361
 30
0.0
 10
30.613229
 20
174.985418
 30
0.0
 11
14.917372
 21
174.877931
 31
0.0
 11
20.149163
 21
174.936209
 31
0.0
 11
25.381148
 21
174.966238
 31
0.0
 11
30.613229
 21
174.985418
 31
0.0
  0
SPLINE
  5
1ff
100
AcDbEntity
  8
decoupe
 62
7
100
AcDbSpline
 70
0
 71
3
 72
10
 73
6
 74
4
 40
0.000000
 40
0.000000
 40
0.000000
 40
0.000000
 40
5.612998
 40
11.225889
 40
16.838857
 40
16.838857
 40
16.838857
 40
16.838857
 10
30.608826
 20
181.417550
 30
0.0
 10
28.737820
 20
181.416480
 30
0.0
 10
24.995845
 20
181.414339
 30
0.0
 10
19.382994
 20
181.453787
 30
0.0
 10
15.641208
 20
181.488794
 30
0.0
 10
13.770302
 20
181.506298
 30
0.0
 11
30.608826
 21
181.417550
 31
0.0
 11
24.995829
 21
181.421449
 31
0.0
 11
19.383045
 21
181.455964
 31
0.0
 11
13.770302
 21
181.506298
 31
0.0
  0
SPLINE
  5
200
100
AcDbEntity
  8
decoupe
 62
7
100
AcDbSpline
 70
0
 71
3
 72
10
 73
6
 74
4
 40
0.000000
 40
0.000000
 40
0.000000
 40
0.000000
 40
1.945790
 40
3.891581
 40
5.837372
 40
5.837372
 40
5.837372
 40
5.837372
 10
13.770302
 20
181.506298
 30
0.0
 10
13.770302
 20
182.154894
 30
0.0
 10
13.770302
 20
183.452088
 30
0.0
 10
13.770302
 20
185.397879
 30
0.0
 10
13.770302
 20
186.695072
 30
0.0
 10
13.770302
 20
187.343669
 30
0.0
 11
13.770302
 21
181.506298
 31
0.0
 11
13.770302
 21
183.452088
 31
0.0
 11
13.770302
 21
185.397879
 31
0.0
 11
13.770302
 21
187.343669
 31
0.0
  0
LINE
  5
201
100
AcDbEntity
  8
decoupe
 62
7
100
AcDbLine
 10
38.147238
 20
187.306179
 30
0.0
 11
38.147238
 21
187.306179
 31
0.0
  0
LINE
  5
202
100
AcDbEntity
  8
decoupe
 62
7
100
AcDbLine
 10
117.323184
 20
78.261309
 30
0.0
 11
117.267276
 21
81.502233
 31
0.0
  0
LINE
  5
203
100
AcDbEntity
  8
decoupe
 62
7
100
AcDbLine
 10
117.267276
 20
81.502233
 30
0.0
 11
117.350509
 21
84.084677
 31
0.0
  0
LINE
  5
204
100
AcDbEntity
  8
decoupe
 62
7
100
AcDbLine
 10
117.350509
 20
84.084677
 30
0.0
 11
129.825612
 21
84.084677
 31
0.0
  0
LINE
  5
205
100
AcDbEntity
  8
decoupe
 62
7
100
AcDbLine
 10
129.825612
 20
84.084677
 30
0.0
 11
142.300717
 21
84.084677
 31
0.0
  0
LINE
  5
206
100
AcDbEntity
  8
decoupe
 62
7
100
AcDbLine
 10
142.300717
 20
84.084677
 30
0.0
 11
142.383400
 21
81.345687
 31
0.0
  0
SPLINE
  5
207
100
AcDbEntity
  8
decoupe
 62
7
100
AcDbSpline
 70
0
 71
3
 72
10
 73
6
 74
4
 40
0.000000
 40
0.000000
 40
0.000000
 40
0.000000
 40
8.125664
 40
16.251315
 40
24.376973
 40
24.376973
 40
24.376973
 40
24.376973
 10
13.770302
 20
187.343669
 30
0.0
 10
16.478847
 20
187.336380
 30
0.0
 10
21.895932
 20
187.321800
 30
0.0
 10
30.021582
 20
187.308857
 30
0.0
 10
35.438686
 20
187.307071
 30
0.0
 10
38.147238
 20
187.306179
 30
0.0
 11
13.770302
 21
187.343669
 31
0.0
 11
21.895940
 21
187.323288
 31
0.0
 11
30.021581
 21
187.310568
 31
0.0
 11
38.147238
 21
187.306179
 31
0.0
  0
LINE
  5
208
100
AcDbEntity
  8
decoupe
 62
7
100
AcDbLine
 10
133.527024
 20
78.166829
 30
0.0
 11
133.485131
 21
64.751904
 31
0.0
  0
SPLINE
  5
209
100
AcDbEntity
  8
decoupe
 62
7
100
AcDbSpline
 70
0
 71
3
 72
13
 73
9
 74
7
 40
0.000000
 40
0.000000
 40
0.000000
 40
0.000000
 40
1.623070
 40
2.572506
 40
3.020225
 40
4.254714
 40
7.282572
 40
11.594071
 40
11.594071
 40
11.594071
 40
11.594071
 10
142.383400
 20
81.345687
 30
0.0
 10
142.387998
 20
80.803619
 30
0.0
 10
142.395286
 20
79.944460
 30
0.0
 10
142.400160
 20
78.945165
 30
0.0
 10
142.010229
 20
78.068311
 30
0.0
 10
140.103269
 20
78.506561
 30
0.0
 10
137.491956
 20
78.078534
 30
0.0
 10
134.994281
 20
78.134155
 30
0.0
 10
133.527024
 20
78.166829
 30
0.0
 11
142.383400
 21
81.345687
 31
0.0
 11
142.395946
 21
79.722666
 31
0.0
 11
142.304330
 21
78.777661
 31
0.0
 11
142.096216
 21
78.381251
 31
0.0
 11
140.865210
 21
78.288579
 31
0.0
 11
137.838260
 21
78.214443
 31
0.0
 11
133.527024
 21
78.166829
 31
0.0
  0
LINE
  5
20a
100
AcDbEntity
  8
decoupe
 62
7
100
AcDbLine
 10
129.616152
 20
51.970322
 30
0.0
 11
125.953876
 21
52.047493
 31
0.0
  0
LINE
  5
20b
100
AcDbEntity
  8
decoupe
 62
7
100
AcDbLine
 10
125.953876
 20
52.047493
 30
0.0
 11
125.953876
 21
64.475744
 31
0.0
  0
LINE
  5
20c
100
AcDbEntity
  8
decoupe
 62
7
100
AcDbLine
 10
125.953876
 20
64.475744
 30
0.0
 11
125.992461
 21
78.147537
 31
0.0
  0
LINE
  5
20d
100
AcDbEntity
  8
decoupe
 62
7
100
AcDbLine
 10
125.992461
 20
78.147537
 30
0.0
 11
117.323184
 21
78.261309
 31
0.0
  0
SPLINE
  5
20e
100
AcDbEntity
  8
decoupe
 62
7
100
AcDbSpline
 70
0
 71
3
 72
13
 73
9
 74
7
 40
0.000000
 40
0.000000
 40
0.000000
 40
0.000000
 40
6.169474
 40
10.662140
 40
12.506039
 40
12.970537
 40
14.165305
 40
16.358989
 40
16.358989
 40
16.358989
 40
16.358989
 10
133.485131
 20
64.751904
 30
0.0
 10
133.561697
 20
62.645236
 30
0.0
 10
133.694018
 20
59.004472
 30
0.0
 10
133.012561
 20
55.261450
 30
0.0
 10
133.918248
 20
52.416916
 30
0.0
 10
132.760376
 20
51.918566
 30
0.0
 10
131.477320
 20
51.979740
 30
0.0
 10
130.347559
 20
51.974023
 30
0.0
 10
129.616152
 20
51.970322
 30
0.0
 11
133.485131
 21
64.751904
 31
0.0
 11
133.476002
 21
58.582437
 31
0.0
 11
133.465984
 21
54.089782
 31
0.0
 11
133.418986
 21
52.246482
 31
0.0
 11
133.001423
 21
52.043015
 31
0.0
 11
131.809793
 21
51.956481
 31
0.0
 11
129.616152
 21
51.970322
 31
0.0
  0
LINE
  5
20f
100
AcDbEntity
  8
decoupe
 62
7
100
AcDbLine
 10
113.533380
 20
51.935984
 30
0.0
 11
89.148166
 21
52.050956
 31
0.0
  0
SPLINE
  5
210
100
AcDbEntity
  8
decoupe
 62
7
100
AcDbSpline
 70
0
 71
3
 72
10
 73
6
 74
4
 40
0.000000
 40
0.000000
 40
0.000000
 40
0.000000
 40
10.809596
 40
21.618993
 40
32.428556
 40
32.428556
 40
32.428556
 40
32.428556
 10
113.525111
 20
84.364297
 30
0.0
 10
113.550315
 20
80.761168
 30
0.0
 10
113.600723
 20
73.554976
 30
0.0
 10
113.577705
 20
62.745386
 30
0.0
 10
113.548155
 20
55.539136
 30
0.0
 10
113.533380
 20
51.935984
 30
0.0
 11
113.525111
 21
84.364297
 31
0.0
 11
113.584285
 21
73.554863
 31
0.0
 11
113.574154
 21
62.745471
 31
0.0
 11
113.533380
 21
51.935984
 31
0.0
  0
SPLINE
  5
211
100
AcDbEntity
  8
decoupe
 62
7
100
AcDbSpline
 70
0
 71
3
 72
10
 73
6
 74
4
 40
0.000000
 40
0.000000
 40
0.000000
 40
0.000000
 40
1.933296
 40
3.866591
 40
5.799887
 40
5.799887
 40
5.799887
 40
5.799887
 10
89.148166
 20
52.050956
 30
0.0
 10
89.148166
 20
52.695388
 30
0.0
 10
89.148166
 20
53.984251
 30
0.0
 10
89.148166
 20
55.917547
 30
0.0
 10
89.148166
 20
57.206411
 30
0.0
 10
89.148166
 20
57.850843
 30
0.0
 11
89.148166
 21
52.050956
 31
0.0
 11
89.148166
 21
53.984251
 31
0.0
 11
89.148166
 21
55.917547
 31
0.0
 11
89.148166
 21
57.850843
 31
0.0
  0
LINE
  5
212
100
AcDbEntity
  8
decoupe
 62
7
100
AcDbLine
 10
105.951965
 20
58.036051
 30
0.0
 11
105.997163
 21
66.128993
 31
0.0
  0
SPLINE
  5
213
100
AcDbEntity
  8
decoupe
 62
7
100
AcDbSpline
 70
0
 71
3
 72
10
 73
6
 74
4
 40
0.000000
 40
0.000000
 40
0.000000
 40
0.000000
 40
5.601610
 40
11.203216
 40
16.804826
 40
16.804826
 40
16.804826
 40
16.804826
 10
89.148166
 20
57.850843
 30
0.0
 10
91.015286
 20
57.868619
 30
0.0
 10
94.749523
 20
57.904172
 30
0.0
 10
100.350756
 20
57.969209
 30
0.0
 10
104.084895
 20
58.013770
 30
0.0
 10
105.951965
 20
58.036051
 30
0.0
 11
89.148166
 21
57.850843
 31
0.0
 11
94.749503
 21
57.906123
 31
0.0
 11
100.350751
 21
57.969510
 31
0.0
 11
105.951965
 21
58.036051
 31
0.0
  0
SPLINE
  5
214
100
AcDbEntity
  8
decoupe
 62
7
100
AcDbSpline
 70
0
 71
3
 72
10
 73
6
 74
4
 40
0.000000
 40
0.000000
 40
0.000000
 40
0.000000
 40
5.233979
 40
10.467950
 40
15.701927
 40
15.701927
 40
15.701927
 40
15.701927
 10
105.997163
 20
66.128993
 30
0.0
 10
104.252507
 20
66.132637
 30
0.0
 10
100.763197
 20
66.139924
 30
0.0
 10
95.529218
 20
66.139546
 30
0.0
 10
92.039903
 20
66.137290
 30
0.0
 10
90.295245
 20
66.136162
 30
0.0
 11
105.997163
 21
66.128993
 31
0.0
 11
100.763193
 21
66.138039
 31
0.0
 11
95.529221
 21
66.139045
 31
0.0
 11
90.295245
 21
66.136162
 31
0.0
  0
SPLINE
  5
215
100
AcDbEntity
  8
decoupe
 62
7
100
AcDbSpline
 70
0
 71
3
 72
10
 73
6
 74
4
 40
0.000000
 40
0.000000
 40
0.000000
 40
0.000000
 40
1.933296
 40
3.866591
 40
5.799887
 40
5.799887
 40
5.799887
 40
5.799887
 10
90.295245
 20
66.136162
 30
0.0
 10
90.295245
 20
66.780594
 30
0.0
 10
90.295245
 20
68.069457
 30
0.0
 10
90.295245
 20
70.002753
 30
0.0
 10
90.295245
 20
71.291617
 30
0.0
 10
90.295245
 20
71.936049
 30
0.0
 11
90.295245
 21
66.136162
 31
0.0
 11
90.295245
 21
68.069457
 31
0.0
 11
90.295245
 21
70.002753
 31
0.0
 11
90.295245
 21
71.936049
 31
0.0
  0
LINE
  5
216
100
AcDbEntity
  8
decoupe
 62
7
100
AcDbLine
 10
105.991101
 20
72.043536
 30
0.0
 11
105.986699
 21
78.475668
 31
0.0
  0
SPLINE
  5
217
100
AcDbEntity
  8
decoupe
 62
7
100
AcDbSpline
 70
0
 71
3
 72
10
 73
6
 74
4
 40
0.000000
 40
0.000000
 40
0.000000
 40
0.000000
 40
5.232115
 40
10.464187
 40
15.696303
 40
15.696303
 40
15.696303
 40
15.696303
 10
90.295245
 20
71.936049
 30
0.0
 10
92.039155
 20
71.957745
 30
0.0
 10
95.526961
 20
72.001137
 30
0.0
 10
100.759038
 20
72.025366
 30
0.0
 10
104.247075
 20
72.037479
 30
0.0
 10
105.991101
 20
72.043536
 30
0.0
 11
90.295245
 21
71.936049
 31
0.0
 11
95.527035
 21
71.994327
 31
0.0
 11
100.759021
 21
72.024356
 31
0.0
 11
105.991101
 21
72.043536
 31
0.0
  0
SPLINE
  5
218
100
AcDbEntity
  8
decoupe
 62
7
100
AcDbSpline
 70
0
 71
3
 72
10
 73
6
 74
4
 40
0.000000
 40
0.000000
 40
0.000000
 40
0.000000
 40
5.612998
 40
11.225888
 40
16.838857
 40
16.838857
 40
16.838857
 40
16.838857
 10
105.986699
 20
78.475668
 30
0.0
 10
104.115693
 20
78.474598
 30
0.0
 10
100.373718
 20
78.472457
 30
0.0
 10
94.760867
 20
78.511905
 30
0.0
 10
91.019081
 20
78.546912
 30
0.0
 10
89.148175
 20
78.564416
 30
0.0
 11
105.986699
 21
78.475668
 31
0.0
 11
100.373702
 21
78.479567
 31
0.0
 11
94.760918
 21
78.514082
 31
0.0
 11
89.148175
 21
78.564416
 31
0.0
  0
SPLINE
  5
219
100
AcDbEntity
  8
decoupe
 62
7
100
AcDbSpline
 70
0
 71
3
 72
10
 73
6
 74
4
 40
0.000000
 40
0.000000
 40
0.000000
 40
0.000000
 40
1.945790
 40
3.891581
 40
5.837372
 40
5.837372
 40
5.837372
 40
5.837372
 10
89.148175
 20
78.564416
 30
0.0
 10
89.148175
 20
79.213012
 30
0.0
 10
89.148175
 20
80.510206
 30
0.0
 10
89.148175
 20
82.455997
 30
0.0
 10
89.148175
 20
83.753190
 30
0.0
 10
89.148175
 20
84.401787
 30
0.0
 11
89.148175
 21
78.564416
 31
0.0
 11
89.148175
 21
80.510206
 31
0.0
 11
89.148175
 21
82.455997
 31
0.0
 11
89.148175
 21
84.401787
 31
0.0
  0
LINE
  5
21a
100
AcDbEntity
  8
decoupe
 62
7
100
AcDbLine
 10
113.525111
 20
84.364297
 30
0.0
 11
113.525111
 21
84.364297
 31
0.0
  0
SPLINE
  5
21b
100
AcDbEntity
  8
decoupe
 62
7
100
AcDbSpline
 70
0
 71
3
 72
10
 73
6
 74
4
 40
0.000000
 40
0.000000
 40
0.000000
 40
0.000000
 40
8.125664
 40
16.251315
 40
24.376973
 40
24.376973
 40
24.376973
 40
24.376973
 10
89.148175
 20
84.401787
 30
0.0
 10
91.856720
 20
84.394498
 30
0.0
 10
97.273805
 20
84.379918
 30
0.0
 10
105.399455
 20
84.366975
 30
0.0
 10
110.816558
 20
84.365189
 30
0.0
 10
113.525111
 20
84.364297
 30
0.0
 11
89.148175
 21
84.401787
 31
0.0
 11
97.273813
 21
84.381406
 31
0.0
 11
105.399454
 21
84.368686
 31
0.0
 11
113.525111
 21
84.364297
 31
0.0
  0
LINE
  5
21c
100
AcDbEntity
  8
decoupe
 62
7
100
AcDbLine
 10
82.474932
 20
103.346188
 30
0.0
 11
58.089718
 21
103.461160
 31
0.0
  0
SPLINE
  5
21d
100
AcDbEntity
  8
decoupe
 62
7
100
AcDbSpline
 70
0
 71
3
 72
10
 73
6
 74
4
 40
0.000000
 40
0.000000
 40
0.000000
 40
0.000000
 40
10.809596
 40
21.618993
 40
32.428556
 40
32.428556
 40
32.428556
 40
32.428556
 10
82.466663
 20
135.774501
 30
0.0
 10
82.491867
 20
132.171372
 30
0.0
 10
82.542275
 20
124.965180
 30
0.0
 10
82.519257
 20
114.155589
 30
0.0
 10
82.489707
 20
106.949340
 30
0.0
 10
82.474932
 20
103.346188
 30
0.0
 11
82.466663
 21
135.774501
 31
0.0
 11
82.525837
 21
124.965067
 31
0.0
 11
82.515706
 21
114.155675
 31
0.0
 11
82.474932
 21
103.346188
 31
0.0
  0
SPLINE
  5
21e
100
AcDbEntity
  8
decoupe
 62
7
100
AcDbSpline
 70
0
 71
3
 72
10
 73
6
 74
4
 40
0.000000
 40
0.000000
 40
0.000000
 40
0.000000
 40
1.933296
 40
3.866591
 40
5.799887
 40
5.799887
 40
5.799887
 40
5.799887
 10
58.089718
 20
103.461160
 30
0.0
 10
58.089718
 20
104.105592
 30
0.0
 10
58.089718
 20
105.394455
 30
0.0
 10
58.089718
 20
107.327751
 30
0.0
 10
58.089718
 20
108.616615
 30
0.0
 10
58.089718
 20
109.261047
 30
0.0
 11
58.089718
 21
103.461160
 31
0.0
 11
58.089718
 21
105.394455
 31
0.0
 11
58.089718
 21
107.327751
 31
0.0
 11
58.089718
 21
109.261047
 31
0.0
  0
LINE
  5
21f
100
AcDbEntity
  8
decoupe
 62
7
100
AcDbLine
 10
74.893517
 20
109.446255
 30
0.0
 11
74.938715
 21
117.539197
 31
0.0
  0
SPLINE
  5
220
100
AcDbEntity
  8
decoupe
 62
7
100
AcDbSpline
 70
0
 71
3
 72
10
 73
6
 74
4
 40
0.000000
 40
0.000000
 40
0.000000
 40
0.000000
 40
5.601610
 40
11.203216
 40
16.804826
 40
16.804826
 40
16.804826
 40
16.804826
 10
58.089718
 20
109.261047
 30
0.0
 10
59.956837
 20
109.278823
 30
0.0
 10
63.691074
 20
109.314376
 30
0.0
 10
69.292308
 20
109.379413
 30
0.0
 10
73.026447
 20
109.423974
 30
0.0
 10
74.893517
 20
109.446255
 30
0.0
 11
58.089718
 21
109.261047
 31
0.0
 11
63.691055
 21
109.316327
 31
0.0
 11
69.292303
 21
109.379714
 31
0.0
 11
74.893517
 21
109.446255
 31
0.0
  0
SPLINE
  5
221
100
AcDbEntity
  8
decoupe
 62
7
100
AcDbSpline
 70
0
 71
3
 72
10
 73
6
 74
4
 40
0.000000
 40
0.000000
 40
0.000000
 40
0.000000
 40
5.233979
 40
10.467950
 40
15.701927
 40
15.701927
 40
15.701927
 40
15.701927
 10
74.938715
 20
117.539197
 30
0.0
 10
73.194059
 20
117.542841
 30
0.0
 10
69.704749
 20
117.550128
 30
0.0
 10
64.470770
 20
117.549749
 30
0.0
 10
60.981455
 20
117.547494
 30
0.0
 10
59.236796
 20
117.546366
 30
0.0
 11
74.938715
 21
117.539197
 31
0.0
 11
69.704744
 21
117.548243
 31
0.0
 11
64.470773
 21
117.549249
 31
0.0
 11
59.236796
 21
117.546366
 31
0.0
  0
SPLINE
  5
222
100
AcDbEntity
  8
decoupe
 62
7
100
AcDbSpline
 70
0
 71
3
 72
10
 73
6
 74
4
 40
0.000000
 40
0.000000
 40
0.000000
 40
0.000000
 40
1.933296
 40
3.866591
 40
5.799887
 40
5.799887
 40
5.799887
 40
5.799887
 10
59.236796
 20
117.546366
 30
0.0
 10
59.236796
 20
118.190798
 30
0.0
 10
59.236796
 20
119.479661
 30
0.0
 10
59.236796
 20
121.412957
 30
0.0
 10
59.236796
 20
122.701821
 30
0.0
 10
59.236796
 20
123.346253
 30
0.0
 11
59.236796
 21
117.546366
 31
0.0
 11
59.236796
 21
119.479661
 31
0.0
 11
59.236796
 21
121.412957
 31
0.0
 11
59.236796
 21
123.346253
 31
0.0
  0
LINE
  5
223
100
AcDbEntity
  8
decoupe
 62
7
100
AcDbLine
 10
74.932653
 20
123.453740
 30
0.0
 11
74.928250
 21
129.885872
 31
0.0
  0
SPLINE
  5
224
100
AcDbEntity
  8
decoupe
 62
7
100
AcDbSpline
 70
0
 71
3
 72
10
 73
6
 74
4
 40
0.000000
 40
0.000000
 40
0.000000
 40
0.000000
 40
5.232115
 40
10.464187
 40
15.696303
 40
15.696303
 40
15.696303
 40
15.696303
 10
59.236796
 20
123.346253
 30
0.0
 10
60.980706
 20
123.367949
 30
0.0
 10
64.468512
 20
123.411341
 30
0.0
 10
69.700589
 20
123.435570
 30
0.0
 10
73.188627
 20
123.447683
 30
0.0
 10
74.932653
 20
123.453740
 30
0.0
 11
59.236796
 21
123.346253
 31
0.0
 11
64.468587
 21
123.404531
 31
0.0
 11
69.700572
 21
123.434560
 31
0.0
 11
74.932653
 21
123.453740
 31
0.0
  0
SPLINE
  5
225
100
AcDbEntity
  8
decoupe
 62
7
100
AcDbSpline
 70
0
 71
3
 72
10
 73
6
 74
4
 40
0.000000
 40
0.000000
 40
0.000000
 40
0.000000
 40
5.612998
 40
11.225888
 40
16.838857
 40
16.838857
 40
16.838857
 40
16.838857
 10
74.928250
 20
129.885872
 30
0.0
 10
73.057245
 20
129.884802
 30
0.0
 10
69.315269
 20
129.882661
 30
0.0
 10
63.702418
 20
129.922108
 30
0.0
 10
59.960633
 20
129.957116
 30
0.0
 10
58.089727
 20
129.974620
 30
0.0
 11
74.928250
 21
129.885872
 31
0.0
 11
69.315253
 21
129.889771
 31
0.0
 11
63.702469
 21
129.924286
 31
0.0
 11
58.089727
 21
129.974620
 31
0.0
  0
SPLINE
  5
226
100
AcDbEntity
  8
decoupe
 62
7
100
AcDbSpline
 70
0
 71
3
 72
10
 73
6
 74
4
 40
0.000000
 40
0.000000
 40
0.000000
 40
0.000000
 40
1.945790
 40
3.891581
 40
5.837372
 40
5.837372
 40
5.837372
 40
5.837372
 10
58.089727
 20
129.974620
 30
0.0
 10
58.089727
 20
130.623216
 30
0.0
 10
58.089727
 20
131.920410
 30
0.0
 10
58.089727
 20
133.866201
 30
0.0
 10
58.089727
 20
135.163394
 30
0.0
 10
58.089727
 20
135.811991
 30
0.0
 11
58.089727
 21
129.974620
 31
0.0
 11
58.089727
 21
131.920410
 31
0.0
 11
58.089727
 21
133.866201
 31
0.0
 11
58.089727
 21
135.811991
 31
0.0
  0
LINE
  5
227
100
AcDbEntity
  8
decoupe
 62
7
100
AcDbLine
 10
82.466663
 20
135.774501
 30
0.0
 11
82.466663
 21
135.774501
 31
0.0
  0
SPLINE
  5
228
100
AcDbEntity
  8
decoupe
 62
7
100
AcDbSpline
 70
0
 71
3
 72
10
 73
6
 74
4
 40
0.000000
 40
0.000000
 40
0.000000
 40
0.000000
 40
8.125664
 40
16.251315
 40
24.376973
 40
24.376973
 40
24.376973
 40
24.376973
 10
58.089727
 20
135.811991
 30
0.0
 10
60.798271
 20
135.804701
 30
0.0
 10
66.215357
 20
135.790122
 30
0.0
 10
74.341007
 20
135.777179
 30
0.0
 10
79.758110
 20
135.775393
 30
0.0
 10
82.466663
 20
135.774501
 30
0.0
 11
58.089727
 21
135.811991
 31
0.0
 11
66.215365
 21
135.791610
 31
0.0
 11
74.341006
 21
135.778890
 31
0.0
 11
82.466663
 21
135.774501
 31
0.0
  0
LINE
  5
229
100
AcDbEntity
  8
decoupe
 62
7
100
AcDbLine
 10
110.804712
 20
103.346188
 30
0.0
 11
86.419498
 21
103.461160
 31
0.0
  0
SPLINE
  5
22a
100
AcDbEntity
  8
decoupe
 62
7
100
AcDbSpline
 70
0
 71
3
 72
10
 73
6
 74
4
 40
0.000000
 40
0.000000
 40
0.000000
 40
0.000000
 40
10.809596
 40
21.618993
 40
32.428556
 40
32.428556
 40
32.428556
 40
32.428556
 10
110.796443
 20
135.774501
 30
0.0
 10
110.821647
 20
132.171372
 30
0.0
 10
110.872055
 20
124.965180
 30
0.0
 10
110.849037
 20
114.155589
 30
0.0
 10
110.819487
 20
106.949340
 30
0.0
 10
110.804712
 20
103.346188
 30
0.0
 11
110.796443
 21
135.774501
 31
0.0
 11
110.855617
 21
124.965067
 31
0.0
 11
110.845486
 21
114.155675
 31
0.0
 11
110.804712
 21
103.346188
 31
0.0
  0
SPLINE
  5
22b
100
AcDbEntity
  8
decoupe
 62
7
100
AcDbSpline
 70
0
 71
3
 72
10
 73
6
 74
4
 40
0.000000
 40
0.000000
 40
0.000000
 40
0.000000
 40
1.933296
 40
3.866591
 40
5.799887
 40
5.799887
 40
5.799887
 40
5.799887
 10
86.419498
 20
103.461160
 30
0.0
 10
86.419498
 20
104.105592
 30
0.0
 10
86.419498
 20
105.394455
 30
0.0
 10
86.419498
 20
107.327751
 30
0.0
 10
86.419498
 20
108.616615
 30
0.0
 10
86.419498
 20
109.261047
 30
0.0
 11
86.419498
 21
103.461160
 31
0.0
 11
86.419498
 21
105.394455
 31
0.0
 11
86.419498
 21
107.327751
 31
0.0
 11
86.419498
 21
109.261047
 31
0.0
  0
LINE
  5
22c
100
AcDbEntity
  8
decoupe
 62
7
100
AcDbLine
 10
103.223297
 20
109.446255
 30
0.0
 11
103.268495
 21
117.539197
 31
0.0
  0
SPLINE
  5
22d
100
AcDbEntity
  8
decoupe
 62
7
100
AcDbSpline
 70
0
 71
3
 72
10
 73
6
 74
4
 40
0.000000
 40
0.000000
 40
0.000000
 40
0.000000
 40
5.601610
 40
11.203216
 40
16.804826
 40
16.804826
 40
16.804826
 40
16.804826
 10
86.419498
 20
109.261047
 30
0.0
 10
88.286617
 20
109.278823
 30
0.0
 10
92.020854
 20
109.314376
 30
0.0
 10
97.622088
 20
109.379413
 30
0.0
 10
101.356227
 20
109.423974
 30
0.0
 10
103.223297
 20
109.446255
 30
0.0
 11
86.419498
 21
109.261047
 31
0.0
 11
92.020835
 21
109.316327
 31
0.0
 11
97.622083
 21
109.379714
 31
0.0
 11
103.223297
 21
109.446255
 31
0.0
  0
SPLINE
  5
22e
100
AcDbEntity
  8
decoupe
 62
7
100
AcDbSpline
 70
0
 71
3
 72
10
 73
6
 74
4
 40
0.000000
 40
0.000000
 40
0.000000
 40
0.000000
 40
5.233979
 40
10.467950
 40
15.701927
 40
15.701927
 40
15.701927
 40
15.701927
 10
103.268495
 20
117.539197
 30
0.0
 10
101.523839
 20
117.542841
 30
0.0
 10
98.034529
 20
117.550128
 30
0.0
 10
92.800550
 20
117.549749
 30
0.0
 10
89.311235
 20
117.547494
 30
0.0
 10
87.566576
 20
117.546366
 30
0.0
 11
103.268495
 21
117.539197
 31
0.0
 11
98.034524
 21
117.548243
 31
0.0
 11
92.800553
 21
117.549249
 31
0.0
 11
87.566576
 21
117.546366
 31
0.0
  0
SPLINE
  5
22f
100
AcDbEntity
  8
decoupe
 62
7
100
AcDbSpline
 70
0
 71
3
 72
10
 73
6
 74
4
 40
0.000000
 40
0.000000
 40
0.000000
 40
0.000000
 40
1.933296
 40
3.866591
 40
5.799887
 40
5.799887
 40
5.799887
 40
5.799887
 10
87.566576
 20
117.546366
 30
0.0
 10
87.566576
 20
118.190798
 30
0.0
 10
87.566576
 20
119.479661
 30
0.0
 10
87.566576
 20
121.412957
 30
0.0
 10
87.566576
 20
122.701821
 30
0.0
 10
87.566576
 20
123.346253
 30
0.0
 11
87.566576
 21
117.546366
 31
0.0
 11
87.566576
 21
119.479661
 31
0.0
 11
87.566576
 21
121.412957
 31
0.0
 11
87.566576
 21
123.346253
 31
0.0
  0
LINE
  5
230
100
AcDbEntity
  8
decoupe
 62
7
100
AcDbLine
 10
103.262433
 20
123.453740
 30
0.0
 11
103.258030
 21
129.885872
 31
0.0
  0
SPLINE
  5
231
100
AcDbEntity
  8
decoupe
 62
7
100
AcDbSpline
 70
0
 71
3
 72
10
 73
6
 74
4
 40
0.000000
 40
0.000000
 40
0.000000
 40
0.000000
 40
5.232115
 40
10.464187
 40
15.696303
 40
15.696303
 40
15.696303
 40
15.696303
 10
87.566576
 20
123.346253
 30
0.0
 10
89.310486
 20
123.367949
 30
0.0
 10
92.798292
 20
123.411341
 30
0.0
 10
98.030369
 20
123.435570
 30
0.0
 10
101.518407
 20
123.447683
 30
0.0
 10
103.262433
 20
123.453740
 30
0.0
 11
87.566576
 21
123.346253
 31
0.0
 11
92.798367
 21
123.404531
 31
0.0
 11
98.030352
 21
123.434560
 31
0.0
 11
103.262433
 21
123.453740
 31
0.0
  0
SPLINE
  5
232
100
AcDbEntity
  8
decoupe
 62
7
100
AcDbSpline
 70
0
 71
3
 72
10
 73
6
 74
4
 40
0.000000
 40
0.000000
 40
0.000000
 40
0.000000
 40
5.612998
 40
11.225888
 40
16.838857
 40
16.838857
 40
16.838857
 40
16.838857
 10
103.258030
 20
129.885872
 30
0.0
 10
101.387025
 20
129.884802
 30
0.0
 10
97.645049
 20
129.882661
 30
0.0
 10
92.032198
 20
129.922108
 30
0.0
 10
88.290413
 20
129.957116
 30
0.0
 10
86.419507
 20
129.974620
 30
0.0
 11
103.258030
 21
129.885872
 31
0.0
 11
97.645033
 21
129.889771
 31
0.0
 11
92.032249
 21
129.924286
 31
0.0
 11
86.419507
 21
129.974620
 31
0.0
  0
SPLINE
  5
233
100
AcDbEntity
  8
decoupe
 62
7
100
AcDbSpline
 70
0
 71
3
 72
10
 73
6
 74
4
 40
0.000000
 40
0.000000
 40
0.000000
 40
0.000000
 40
1.945790
 40
3.891581
 40
5.837372
 40
5.837372
 40
5.837372
 40
5.837372
 10
86.419507
 20
129.974620
 30
0.0
 10
86.419507
 20
130.623216
 30
0.0
 10
86.419507
 20
131.920410
 30
0.0
 10
86.419507
 20
133.866201
 30
0.0
 10
86.419507
 20
135.163394
 30
0.0
 10
86.419507
 20
135.811991
 30
0.0
 11
86.419507
 21
129.974620
 31
0.0
 11
86.419507
 21
131.920410
 31
0.0
 11
86.419507
 21
133.866201
 31
0.0
 11
86.419507
 21
135.811991
 31
0.0
  0
LINE
  5
234
100
AcDbEntity
  8
decoupe
 62
7
100
AcDbLine
 10
110.796443
 20
135.774501
 30
0.0
 11
110.796443
 21
135.774501
 31
0.0
  0
SPLINE
  5
235
100
AcDbEntity
  8
decoupe
 62
7
100
AcDbSpline
 70
0
 71
3
 72
10
 73
6
 74
4
 40
0.000000
 40
0.000000
 40
0.000000
 40
0.000000
 40
8.125664
 40
16.251315
 40
24.376973
 40
24.376973
 40
24.376973
 40
24.376973
 10
86.419507
 20
135.811991
 30
0.0
 10
89.128051
 20
135.804701
 30
0.0
 10
94.545137
 20
135.790122
 30
0.0
 10
102.670787
 20
135.777179
 30
0.0
 10
108.087890
 20
135.775393
 30
0.0
 10
110.796443
 20
135.774501
 30
0.0
 11
86.419507
 21
135.811991
 31
0.0
 11
94.545145
 21
135.791610
 31
0.0
 11
102.670786
 21
135.778890
 31
0.0
 11
110.796443
 21
135.774501
 31
0.0
  0
LINE
  5
236
100
AcDbEntity
  8
decoupe
 62
7
100
AcDbLine
 10
155.489989
 20
135.758634
 30
0.0
 11
155.420035
 21
103.448220
 31
0.0
  0
SPLINE
  5
237
100
AcDbEntity
  8
decoupe
 62
7
100
AcDbSpline
 70
0
 71
3
 72
10
 73
6
 74
4
 40
0.000000
 40
0.000000
 40
0.000000
 40
0.000000
 40
2.485468
 40
4.970936
 40
7.456404
 40
7.456404
 40
7.456404
 40
7.456404
 10
148.033585
 20
135.758634
 30
0.0
 10
148.862074
 20
135.758634
 30
0.0
 10
150.519053
 20
135.758634
 30
0.0
 10
153.004521
 20
135.758634
 30
0.0
 10
154.661500
 20
135.758634
 30
0.0
 10
155.489989
 20
135.758634
 30
0.0
 11
148.033585
 21
135.758634
 31
0.0
 11
150.519053
 21
135.758634
 31
0.0
 11
153.004521
 21
135.758634
 31
0.0
 11
155.489989
 21
135.758634
 31
0.0
  0
SPLINE
  5
238
100
AcDbEntity
  8
decoupe
 62
7
100
AcDbSpline
 70
0
 71
3
 72
10
 73
6
 74
4
 40
0.000000
 40
0.000000
 40
0.000000
 40
0.000000
 40
2.470124
 40
4.956726
 40
7.426373
 40
7.426373
 40
7.426373
 40
7.426373
 10
155.420035
 20
103.448220
 30
0.0
 10
154.596842
 20
103.429573
 30
0.0
 10
152.944964
 20
103.392154
 30
0.0
 10
150.469269
 20
103.400416
 30
0.0
 10
148.817462
 20
103.430419
 30
0.0
 10
147.994384
 20
103.445369
 30
0.0
 11
155.420035
 21
103.448220
 31
0.0
 11
152.950326
 21
103.402941
 31
0.0
 11
150.463726
 21
103.406599
 31
0.0
 11
147.994384
 21
103.445369
 31
0.0
  0
LINE
  5
239
100
AcDbEntity
  8
decoupe
 62
7
100
AcDbLine
 10
148.033585
 20
135.758629
 30
0.0
 11
148.033585
 21
135.758634
 31
0.0
  0
SPLINE
  5
23a
100
AcDbEntity
  8
decoupe
 62
7
100
AcDbSpline
 70
0
 71
3
 72
10
 73
6
 74
4
 40
0.000000
 40
0.000000
 40
0.000000
 40
0.000000
 40
10.771091
 40
21.542194
 40
32.313285
 40
32.313285
 40
32.313285
 40
32.313285
 10
147.994384
 20
103.445369
 30
0.0
 10
147.996804
 20
107.035733
 30
0.0
 10
148.001644
 20
114.216464
 30
0.0
 10
148.026325
 20
124.987534
 30
0.0
 10
148.031165
 20
132.168265
 30
0.0
 10
148.033585
 20
135.758629
 30
0.0
 11
147.994384
 21
103.445369
 31
0.0
 11
148.004547
 21
114.216456
 31
0.0
 11
148.023422
 21
124.987542
 31
0.0
 11
148.033585
 21
135.758629
 31
0.0
  0
ENDSEC
  0
SECTION
  2
OBJECTS
  0
DICTIONARY
  5
C
330
0
100
AcDbDictionary
  3
ACAD_GROUP
350
D
  3
ACAD_MLINESTYLE
350
17
  0
DICTIONARY
  5
D
330
C
100
AcDbDictionary
  0
DICTIONARY
  5
1A
330
C
100
AcDbDictionary
  0
DICTIONARY
  5
17
330
C
100
AcDbDictionary
  3
STANDARD
350
18
  0
DICTIONARY
  5
19
330
C
100
AcDbDictionary
  0
ENDSEC
  0
EOF
