  0
SECTION
  2
HEADER
  9
$ACADVER
  1
AC1014
  9
$HANDSEED
  5
FFFF
  9
$MEASUREMENT
 70
     1
  0
ENDSEC
  0
SECTION
  2
TABLES
  0
TABLE
  2
VPORT
  5
8
330
0
100
AcDbSymbolTable
 70
     4
  0
VPORT
  5
2E
330
8
100
AcDbSymbolTableRecord
100
AcDbViewportTableRecord
  2
*ACTIVE
 70
     0
 10
0.0
 20
0.0
 11
1.0
 21
1.0
 12
210.0
 22
148.5
 13
0.0
 23
0.0
 14
10.0
 24
10.0
 15
10.0
 25
10.0
 16
0.0
 26
0.0
 36
1.0
 17
0.0
 27
0.0
 37
0.0
 40
341.0
 41
1.24
 42
50.0
 43
0.0
 44
0.0
 50
0.0
 51
0.0
 71
     0
 72
   100
 73
     1
 74
     3
 75
     0
 76
     0
 77
     0
 78
     0
  0
ENDTAB
  0
TABLE
  2
LTYPE
  5
5
330
0
100
AcDbSymbolTable
 70
     1
  0
LTYPE
  5
14
330
5
100
AcDbSymbolTableRecord
100
AcDbLinetypeTableRecord
  2
BYBLOCK
 70
     0
  3

 72
    65
 73
     0
 40
0.0
  0
LTYPE
  5
15
330
5
100
AcDbSymbolTableRecord
100
AcDbLinetypeTableRecord
  2
BYLAYER
 70
     0
  3

 72
    65
 73
     0
 40
0.0
  0
LTYPE
  5
16
330
5
100
AcDbSymbolTableRecord
100
AcDbLinetypeTableRecord
  2
CONTINUOUS
 70
     0
  3
Solid line
 72
    65
 73
     0
 40
0.0
  0
ENDTAB
  0
TABLE
  2
LAYER
  5
2
100
AcDbSymbolTable
 70
2
  0
LAYER
  5
50
100
AcDbSymbolTableRecord
100
AcDbLayerTableRecord
  2
0
 70
0
  6
CONTINUOUS
  0
LAYER
  5
51
100
AcDbSymbolTableRecord
100
AcDbLayerTableRecord
  2
decoupe
 70
0
  6
CONTINUOUS
  0
ENDTAB
  0
TABLE
  2
STYLE
  5
3
330
0
100
AcDbSymbolTable
 70
     1
  0
STYLE
  5
11
330
3
100
AcDbSymbolTableRecord
100
AcDbTextStyleTableRecord
  2
STANDARD
 70
     0
 40
0.0
 41
1.0
 50
0.0
 71
     0
 42
2.5
  3
txt
  4

  0
ENDTAB
  0
TABLE
  2
VIEW
  5
6
330
0
100
AcDbSymbolTable
 70
     0
  0
ENDTAB
  0
TABLE
  2
UCS
  5
7
330
0
100
AcDbSymbolTable
 70
     0
  0
ENDTAB
  0
TABLE
  2
APPID
  5
9
330
0
100
AcDbSymbolTable
 70
     2
  0
APPID
  5
12
330
9
100
AcDbSymbolTableRecord
100
AcDbRegAppTableRecord
  2
ACAD
 70
     0
  0
ENDTAB
  0
TABLE
  2
DIMSTYLE
  5
A
330
0
100
AcDbSymbolTable
 70
     1
  0
DIMSTYLE
105
27
330
A
100
AcDbSymbolTableRecord
100
AcDbDimStyleTableRecord
  2
ISO-25
 70
     0
  3

  4

  5

  6

  7

 40
1.0
 41
2.5
 42
0.625
 43
3.75
 44
1.25
 45
0.0
 46
0.0
 47
0.0
 48
0.0
140
2.5
141
2.5
142
0.0
143
0.03937007874016
144
1.0
145
0.0
146
1.0
147
0.625
 71
     0
 72
     0
 73
     0
 74
     0
 75
     0
 76
     0
 77
     1
 78
     8
170
     0
171
     3
172
     1
173
     0
174
     0
175
     0
176
     0
177
     0
178
     0
270
     2
271
     2
272
     2
273
     2
274
     3
340
11
275
     0
280
     0
281
     0
282
     0
283
     0
284
     8
285
     0
286
     0
287
     3
288
     0
  0
ENDTAB
  0
TABLE
  2
BLOCK_RECORD
  5
1
330
0
100
AcDbSymbolTable
 70
     1
  0
BLOCK_RECORD
  5
1F
330
1
100
AcDbSymbolTableRecord
100
AcDbBlockTableRecord
  2
*MODEL_SPACE
  0
BLOCK_RECORD
  5
1B
330
1
100
AcDbSymbolTableRecord
100
AcDbBlockTableRecord
  2
*PAPER_SPACE
  0
ENDTAB
  0
ENDSEC
  0
SECTION
  2
BLOCKS
  0
BLOCK
  5
20
330
1F
100
AcDbEntity
  8
0
100
AcDbBlockBegin
  2
*MODEL_SPACE
 70
     0
 10
0.0
 20
0.0
 30
0.0
  3
*MODEL_SPACE
  1

  0
ENDBLK
  5
21
330
1F
100
AcDbEntity
  8
0
100
AcDbBlockEnd
  0
BLOCK
  5
1C
330
1B
100
AcDbEntity
 67
     1
  8
0
100
AcDbBlockBegin
  2
*PAPER_SPACE
  1

  0
ENDBLK
  5
1D
330
1B
100
AcDbEntity
 67
     1
  8
0
100
AcDbBlockEnd
  0
ENDSEC
  0
SECTION
  2
ENTITIES
  0
SPLINE
  5
100
100
AcDbEntity
  8
decoupe
 62
7
100
AcDbSpline
 70
8
 71
3
 72
8
 73
4
 74
0
 40
0
 40
0
 40
0
 40
0
 40
1
 40
1
 40
1
 40
1
 10
43.245385
 20
68.544677
 30
0.0
 10
43.204435
 20
59.886382
 30
0.0
 10
43.234153
 20
52.643239
 30
0.0
 10
43.311386
 20
52.448802
 30
0.0
  0
SPLINE
  5
101
100
AcDbEntity
  8
decoupe
 62
7
100
AcDbSpline
 70
8
 71
3
 72
8
 73
4
 74
0
 40
0
 40
0
 40
0
 40
0
 40
1
 40
1
 40
1
 40
1
 10
43.311386
 20
52.448802
 30
0.0
 10
43.417651
 20
52.181334
 30
0.0
 10
44.343261
 20
52.114109
 30
0.0
 10
47.114042
 20
52.172619
 30
0.0
  0
LWPOLYLINE
  5
102
100
AcDbEntity
  8
decoupe
 62
7
100
AcDbPolyline
 90
5
 70
1
 10
50.776243
 20
68.268497
 30
0.0
 10
50.776243
 20
84.287036
 30
0.0
 10
47.048042
 20
84.287036
 30
0.0
 10
43.319841
 20
84.287036
 30
0.0
 10
43.245385
 20
68.544677
 30
0.0
  0
SPLINE
  5
103
100
AcDbEntity
  8
decoupe
 62
7
100
AcDbSpline
 70
8
 71
3
 72
8
 73
4
 74
0
 40
0
 40
0
 40
0
 40
0
 40
1
 40
1
 40
1
 40
1
 10
81.084256
 20
60.811591
 30
0.0
 10
82.457115
 20
65.520488
 30
0.0
 10
83.995531
 20
70.802464
 30
0.0
 10
84.502958
 20
72.549312
 30
0.0
  0
SPLINE
  5
104
100
AcDbEntity
  8
decoupe
 62
7
100
AcDbSpline
 70
8
 71
3
 72
8
 73
4
 74
0
 40
0
 40
0
 40
0
 40
0
 40
1
 40
1
 40
1
 40
1
 10
84.502958
 20
72.549312
 30
0.0
 10
85.410362
 20
75.673105
 30
0.0
 10
85.732428
 20
76.400209
 30
0.0
 10
86.066277
 20
76.078701
 30
0.0
  0
SPLINE
  5
105
100
AcDbEntity
  8
decoupe
 62
7
100
AcDbSpline
 70
8
 71
3
 72
8
 73
4
 74
0
 40
0
 40
0
 40
0
 40
0
 40
1
 40
1
 40
1
 40
1
 10
86.066277
 20
76.078701
 30
0.0
 10
86.509626
 20
75.651744
 30
0.0
 10
89.400930
 20
65.397095
 30
0.0
 10
89.176547
 20
65.047453
 30
0.0
  0
SPLINE
  5
106
100
AcDbEntity
  8
decoupe
 62
7
100
AcDbSpline
 70
8
 71
3
 72
8
 73
4
 74
0
 40
0
 40
0
 40
0
 40
0
 40
1
 40
1
 40
1
 40
1
 10
89.176547
 20
65.047453
 30
0.0
 10
89.094928
 20
64.920281
 30
0.0
 10
87.890090
 20
64.816225
 30
0.0
 10
86.499130
 20
64.816225
 30
0.0
  0
SPLINE
  5
107
100
AcDbEntity
  8
decoupe
 62
7
100
AcDbSpline
 70
8
 71
3
 72
8
 73
4
 74
0
 40
0
 40
0
 40
0
 40
0
 40
1
 40
1
 40
1
 40
1
 10
86.499130
 20
64.816225
 30
0.0
 10
84.812573
 20
64.816225
 30
0.0
 10
84.737874
 20
64.779280
 30
0.0
 10
84.555979
 20
64.549054
 30
0.0
  0
SPLINE
  5
108
100
AcDbEntity
  8
decoupe
 62
7
100
AcDbSpline
 70
8
 71
3
 72
8
 73
4
 74
0
 40
0
 40
0
 40
0
 40
0
 40
1
 40
1
 40
1
 40
1
 10
84.555979
 20
64.549054
 30
0.0
 10
84.240751
 20
64.150077
 30
0.0
 10
83.076830
 20
59.946585
 30
0.0
 10
83.076830
 20
59.305422
 30
0.0
  0
SPLINE
  5
109
100
AcDbEntity
  8
decoupe
 62
7
100
AcDbSpline
 70
8
 71
3
 72
8
 73
4
 74
0
 40
0
 40
0
 40
0
 40
0
 40
1
 40
1
 40
1
 40
1
 10
83.076830
 20
59.305422
 30
0.0
 10
83.076830
 20
58.936354
 30
0.0
 10
82.824791
 20
59.019491
 30
0.0
 10
86.665966
 20
58.954377
 30
0.0
  0
LWPOLYLINE
  5
10a
100
AcDbEntity
  8
decoupe
 62
7
100
AcDbPolyline
 90
4
 70
1
 10
47.114042
 20
52.172619
 30
0.0
 10
50.776243
 20
52.249959
 30
0.0
 10
50.776243
 20
68.268497
 30
0.0
 10
50.776243
 20
68.268497
 30
0.0
  0
SPLINE
  5
10b
100
AcDbEntity
  8
decoupe
 62
7
100
AcDbSpline
 70
8
 71
3
 72
8
 73
4
 74
0
 40
0
 40
0
 40
0
 40
0
 40
1
 40
1
 40
1
 40
1
 10
97.499399
 20
52.172814
 30
0.0
 10
99.695130
 20
52.130384
 30
0.0
 10
101.598188
 20
52.198270
 30
0.0
 10
101.728425
 20
52.323701
 30
0.0
  0
SPLINE
  5
10c
100
AcDbEntity
  8
decoupe
 62
7
100
AcDbSpline
 70
8
 71
3
 72
8
 73
4
 74
0
 40
0
 40
0
 40
0
 40
0
 40
1
 40
1
 40
1
 40
1
 10
101.728425
 20
52.323701
 30
0.0
 10
101.858659
 20
52.449121
 30
0.0
 10
100.661354
 20
56.088006
 30
0.0
 10
99.067755
 20
60.410116
 30
0.0
  0
SPLINE
  5
10d
100
AcDbEntity
  8
decoupe
 62
7
100
AcDbSpline
 70
8
 71
3
 72
8
 73
4
 74
0
 40
0
 40
0
 40
0
 40
0
 40
1
 40
1
 40
1
 40
1
 10
99.067755
 20
60.410116
 30
0.0
 10
95.661678
 20
69.647955
 30
0.0
 10
95.376489
 20
70.425734
 30
0.0
 10
92.743223
 20
77.658674
 30
0.0
  0
SPLINE
  5
10e
100
AcDbEntity
  8
decoupe
 62
7
100
AcDbSpline
 70
8
 71
3
 72
8
 73
4
 74
0
 40
0
 40
0
 40
0
 40
0
 40
1
 40
1
 40
1
 40
1
 10
92.743223
 20
77.658674
 30
0.0
 10
91.637194
 20
80.696672
 30
0.0
 10
90.547055
 20
83.461942
 30
0.0
 10
90.320695
 20
83.803716
 30
0.0
  0
SPLINE
  5
10f
100
AcDbEntity
  8
decoupe
 62
7
100
AcDbSpline
 70
8
 71
3
 72
8
 73
4
 74
0
 40
0
 40
0
 40
0
 40
0
 40
1
 40
1
 40
1
 40
1
 10
90.320695
 20
83.803716
 30
0.0
 10
89.926095
 20
84.399515
 30
0.0
 10
89.744214
 20
84.425124
 30
0.0
 10
85.907369
 20
84.425124
 30
0.0
  0
SPLINE
  5
110
100
AcDbEntity
  8
decoupe
 62
7
100
AcDbSpline
 70
8
 71
3
 72
8
 73
4
 74
0
 40
0
 40
0
 40
0
 40
0
 40
1
 40
1
 40
1
 40
1
 10
85.907369
 20
84.425124
 30
0.0
 10
82.058612
 20
84.425124
 30
0.0
 10
81.889230
 20
84.401079
 30
0.0
 10
81.477304
 20
83.795625
 30
0.0
  0
SPLINE
  5
111
100
AcDbEntity
  8
decoupe
 62
7
100
AcDbSpline
 70
8
 71
3
 72
8
 73
4
 74
0
 40
0
 40
0
 40
0
 40
0
 40
1
 40
1
 40
1
 40
1
 10
81.477304
 20
83.795625
 30
0.0
 10
81.241742
 20
83.449400
 30
0.0
 10
78.980338
 20
77.277028
 30
0.0
 10
76.451962
 20
70.079241
 30
0.0
  0
SPLINE
  5
112
100
AcDbEntity
  8
decoupe
 62
7
100
AcDbSpline
 70
8
 71
3
 72
8
 73
4
 74
0
 40
0
 40
0
 40
0
 40
0
 40
1
 40
1
 40
1
 40
1
 10
76.451962
 20
70.079241
 30
0.0
 10
71.997943
 20
57.399510
 30
0.0
 10
71.854918
 20
56.922162
 30
0.0
 10
71.854918
 20
54.736233
 30
0.0
  0
SPLINE
  5
113
100
AcDbEntity
  8
decoupe
 62
7
100
AcDbSpline
 70
8
 71
3
 72
8
 73
4
 74
0
 40
0
 40
0
 40
0
 40
0
 40
1
 40
1
 40
1
 40
1
 10
71.854918
 20
54.736233
 30
0.0
 10
71.854918
 20
53.495364
 30
0.0
 10
71.944944
 20
52.393416
 30
0.0
 10
72.054971
 20
52.287452
 30
0.0
  0
SPLINE
  5
114
100
AcDbEntity
  8
decoupe
 62
7
100
AcDbSpline
 70
8
 71
3
 72
8
 73
4
 74
0
 40
0
 40
0
 40
0
 40
0
 40
1
 40
1
 40
1
 40
1
 10
72.054971
 20
52.287452
 30
0.0
 10
72.164998
 20
52.181492
 30
0.0
 10
73.679976
 20
52.129710
 30
0.0
 10
75.421586
 20
52.172379
 30
0.0
  0
LWPOLYLINE
  5
115
100
AcDbEntity
  8
decoupe
 62
7
100
AcDbPolyline
 90
5
 70
1
 10
86.665966
 20
58.954377
 30
0.0
 10
91.152763
 20
58.878321
 30
0.0
 10
92.329965
 20
55.564140
 30
0.0
 10
93.507165
 20
52.249959
 30
0.0
 10
97.499399
 20
52.172814
 30
0.0
  0
LWPOLYLINE
  5
116
100
AcDbEntity
  8
decoupe
 62
7
100
AcDbPolyline
 90
3
 70
1
 10
75.421586
 20
52.172379
 30
0.0
 10
78.588148
 20
52.249959
 30
0.0
 10
81.084256
 20
60.811591
 30
0.0
  0
SPLINE
  5
117
100
AcDbEntity
  8
decoupe
 62
7
100
AcDbSpline
 70
8
 71
3
 72
8
 73
4
 74
0
 40
0
 40
0
 40
0
 40
0
 40
1
 40
1
 40
1
 40
1
 10
104.885848
 20
68.544677
 30
0.0
 10
104.844898
 20
59.886382
 30
0.0
 10
104.874616
 20
52.643239
 30
0.0
 10
104.951849
 20
52.448802
 30
0.0
  0
SPLINE
  5
118
100
AcDbEntity
  8
decoupe
 62
7
100
AcDbSpline
 70
8
 71
3
 72
8
 73
4
 74
0
 40
0
 40
0
 40
0
 40
0
 40
1
 40
1
 40
1
 40
1
 10
104.951849
 20
52.448802
 30
0.0
 10
105.058114
 20
52.181334
 30
0.0
 10
105.983721
 20
52.114109
 30
0.0
 10
108.754503
 20
52.172619
 30
0.0
  0
LWPOLYLINE
  5
119
100
AcDbEntity
  8
decoupe
 62
7
100
AcDbPolyline
 90
5
 70
1
 10
112.416706
 20
68.268497
 30
0.0
 10
112.416706
 20
84.287036
 30
0.0
 10
108.688502
 20
84.287036
 30
0.0
 10
104.960301
 20
84.287036
 30
0.0
 10
104.885848
 20
68.544677
 30
0.0
  0
SPLINE
  5
11a
100
AcDbEntity
  8
decoupe
 62
7
100
AcDbSpline
 70
8
 71
3
 72
8
 73
4
 74
0
 40
0
 40
0
 40
0
 40
0
 40
1
 40
1
 40
1
 40
1
 10
133.560439
 20
52.284156
 30
0.0
 10
133.658833
 20
52.378915
 30
0.0
 10
133.507051
 20
52.907111
 30
0.0
 10
133.223138
 20
53.457927
 30
0.0
  0
SPLINE
  5
11b
100
AcDbEntity
  8
decoupe
 62
7
100
AcDbSpline
 70
8
 71
3
 72
8
 73
4
 74
0
 40
0
 40
0
 40
0
 40
0
 40
1
 40
1
 40
1
 40
1
 10
133.223138
 20
53.457927
 30
0.0
 10
132.539653
 20
54.783965
 30
0.0
 10
132.148749
 20
56.284698
 30
0.0
 10
131.470598
 20
60.186189
 30
0.0
  0
SPLINE
  5
11c
100
AcDbEntity
  8
decoupe
 62
7
100
AcDbSpline
 70
8
 71
3
 72
8
 73
4
 74
0
 40
0
 40
0
 40
0
 40
0
 40
1
 40
1
 40
1
 40
1
 10
131.470598
 20
60.186189
 30
0.0
 10
130.928979
 20
63.302199
 30
0.0
 10
130.555876
 20
64.427659
 30
0.0
 10
129.569450
 20
65.920953
 30
0.0
  0
SPLINE
  5
11d
100
AcDbEntity
  8
decoupe
 62
7
100
AcDbSpline
 70
8
 71
3
 72
8
 73
4
 74
0
 40
0
 40
0
 40
0
 40
0
 40
1
 40
1
 40
1
 40
1
 10
129.569450
 20
65.920953
 30
0.0
 10
129.132491
 20
66.582445
 30
0.0
 10
129.156787
 20
66.673428
 30
0.0
 10
130.148751
 20
68.090037
 30
0.0
  0
SPLINE
  5
11e
100
AcDbEntity
  8
decoupe
 62
7
100
AcDbSpline
 70
8
 71
3
 72
8
 73
4
 74
0
 40
0
 40
0
 40
0
 40
0
 40
1
 40
1
 40
1
 40
1
 10
130.148751
 20
68.090037
 30
0.0
 10
131.655992
 20
70.242512
 30
0.0
 10
132.144375
 20
72.128013
 30
0.0
 10
131.979122
 20
75.156571
 30
0.0
  0
SPLINE
  5
11f
100
AcDbEntity
  8
decoupe
 62
7
100
AcDbSpline
 70
8
 71
3
 72
8
 73
4
 74
0
 40
0
 40
0
 40
0
 40
0
 40
1
 40
1
 40
1
 40
1
 10
131.979122
 20
75.156571
 30
0.0
 10
131.750971
 20
79.337809
 30
0.0
 10
130.095013
 20
81.766278
 30
0.0
 10
126.252879
 20
83.554133
 30
0.0
  0
SPLINE
  5
120
100
AcDbEntity
  8
decoupe
 62
7
100
AcDbSpline
 70
8
 71
3
 72
8
 73
4
 74
0
 40
0
 40
0
 40
0
 40
0
 40
1
 40
1
 40
1
 40
1
 10
126.252879
 20
83.554133
 30
0.0
 10
124.762932
 20
84.247446
 30
0.0
 10
120.474023
 20
84.770855
 30
0.0
 10
117.273795
 20
84.649917
 30
0.0
  0
LWPOLYLINE
  5
121
100
AcDbEntity
  8
decoupe
 62
7
100
AcDbPolyline
 90
4
 70
1
 10
108.754503
 20
52.172619
 30
0.0
 10
112.416706
 20
52.249959
 30
0.0
 10
112.416706
 20
68.268497
 30
0.0
 10
112.416706
 20
68.268497
 30
0.0
  0
SPLINE
  5
122
100
AcDbEntity
  8
decoupe
 62
7
100
AcDbSpline
 70
8
 71
3
 72
8
 73
4
 74
0
 40
0
 40
0
 40
0
 40
0
 40
1
 40
1
 40
1
 40
1
 10
118.134150
 20
78.873982
 30
0.0
 10
122.421475
 20
78.648921
 30
0.0
 10
123.181940
 20
78.290691
 30
0.0
 10
124.160551
 20
76.035140
 30
0.0
  0
SPLINE
  5
123
100
AcDbEntity
  8
decoupe
 62
7
100
AcDbSpline
 70
8
 71
3
 72
8
 73
4
 74
0
 40
0
 40
0
 40
0
 40
0
 40
1
 40
1
 40
1
 40
1
 10
124.160551
 20
76.035140
 30
0.0
 10
124.842383
 20
74.463620
 30
0.0
 10
124.322467
 20
72.315640
 30
0.0
 10
122.986907
 20
71.186359
 30
0.0
  0
SPLINE
  5
124
100
AcDbEntity
  8
decoupe
 62
7
100
AcDbSpline
 70
8
 71
3
 72
8
 73
4
 74
0
 40
0
 40
0
 40
0
 40
0
 40
1
 40
1
 40
1
 40
1
 10
122.986907
 20
71.186359
 30
0.0
 10
121.769324
 20
70.156835
 30
0.0
 10
121.437564
 20
70.079873
 30
0.0
 10
117.847364
 20
69.994103
 30
0.0
  0
LWPOLYLINE
  5
125
100
AcDbEntity
  8
decoupe
 62
7
100
AcDbPolyline
 90
5
 70
1
 10
117.273795
 20
84.649917
 30
0.0
 10
114.979518
 20
84.563216
 30
0.0
 10
114.979518
 20
81.801400
 30
0.0
 10
114.979518
 20
79.039582
 30
0.0
 10
118.134150
 20
78.873982
 30
0.0
  0
SPLINE
  5
126
100
AcDbEntity
  8
decoupe
 62
7
100
AcDbSpline
 70
8
 71
3
 72
8
 73
4
 74
0
 40
0
 40
0
 40
0
 40
0
 40
1
 40
1
 40
1
 40
1
 10
118.079607
 20
63.956461
 30
0.0
 10
122.793991
 20
63.698987
 30
0.0
 10
123.228007
 20
63.312687
 30
0.0
 10
124.056442
 20
58.636724
 30
0.0
  0
SPLINE
  5
127
100
AcDbEntity
  8
decoupe
 62
7
100
AcDbSpline
 70
8
 71
3
 72
8
 73
4
 74
0
 40
0
 40
0
 40
0
 40
0
 40
1
 40
1
 40
1
 40
1
 10
124.056442
 20
58.636724
 30
0.0
 10
124.759714
 20
54.667193
 30
0.0
 10
125.038248
 20
53.716787
 30
0.0
 10
125.755730
 20
52.838378
 30
0.0
  0
SPLINE
  5
128
100
AcDbEntity
  8
decoupe
 62
7
100
AcDbSpline
 70
8
 71
3
 72
8
 73
4
 74
0
 40
0
 40
0
 40
0
 40
0
 40
1
 40
1
 40
1
 40
1
 10
125.755730
 20
52.838378
 30
0.0
 10
126.338909
 20
52.124396
 30
0.0
 10
126.409775
 20
52.111868
 30
0.0
 10
129.865337
 20
52.111868
 30
0.0
  0
SPLINE
  5
129
100
AcDbEntity
  8
decoupe
 62
7
100
AcDbSpline
 70
8
 71
3
 72
8
 73
4
 74
0
 40
0
 40
0
 40
0
 40
0
 40
1
 40
1
 40
1
 40
1
 10
129.865337
 20
52.111868
 30
0.0
 10
131.799248
 20
52.111868
 30
0.0
 10
133.462042
 20
52.189397
 30
0.0
 10
133.560439
 20
52.284156
 30
0.0
  0
LWPOLYLINE
  5
12a
100
AcDbEntity
  8
decoupe
 62
7
100
AcDbPolyline
 90
5
 70
1
 10
117.847364
 20
69.994103
 30
0.0
 10
114.979518
 20
69.925588
 30
0.0
 10
114.979518
 20
67.025678
 30
0.0
 10
114.979518
 20
64.125772
 30
0.0
 10
118.079607
 20
63.956461
 30
0.0
  0
LWPOLYLINE
  5
12b
100
AcDbEntity
  8
decoupe
 62
7
100
AcDbPolyline
 90
2
 70
1
 10
133.560439
 20
52.284156
 30
0.0
 10
133.560439
 20
52.284156
 30
0.0
  0
SPLINE
  5
12c
100
AcDbEntity
  8
decoupe
 62
7
100
AcDbSpline
 70
8
 71
3
 72
8
 73
4
 74
0
 40
0
 40
0
 40
0
 40
0
 40
1
 40
1
 40
1
 40
1
 10
193.151895
 20
55.309810
 30
0.0
 10
193.105927
 20
53.954731
 30
0.0
 10
193.134680
 20
52.679614
 30
0.0
 10
193.215839
 20
52.476011
 30
0.0
  0
SPLINE
  5
12d
100
AcDbEntity
  8
decoupe
 62
7
100
AcDbSpline
 70
8
 71
3
 72
8
 73
4
 74
0
 40
0
 40
0
 40
0
 40
0
 40
1
 40
1
 40
1
 40
1
 10
193.215839
 20
52.476011
 30
0.0
 10
193.336472
 20
52.173274
 30
0.0
 10
195.494114
 20
52.118799
 30
0.0
 10
205.057595
 20
52.177803
 30
0.0
  0
LWPOLYLINE
  5
12e
100
AcDbEntity
  8
decoupe
 62
7
100
AcDbPolyline
 90
2
 70
1
 10
193.235131
 20
57.773742
 30
0.0
 10
193.151895
 20
55.309810
 30
0.0
  0
SPLINE
  5
12f
100
AcDbEntity
  8
decoupe
 62
7
100
AcDbSpline
 70
8
 71
3
 72
8
 73
4
 74
0
 40
0
 40
0
 40
0
 40
0
 40
1
 40
1
 40
1
 40
1
 10
216.751628
 20
57.773742
 30
0.0
 10
211.371465
 20
57.763357
 30
0.0
 10
205.991607
 20
57.765163
 30
0.0
 10
200.611686
 20
57.811396
 30
0.0
  0
LWPOLYLINE
  5
130
100
AcDbEntity
  8
decoupe
 62
7
100
AcDbPolyline
 90
4
 70
1
 10
205.057595
 20
52.177803
 30
0.0
 10
216.751628
 20
52.250013
 30
0.0
 10
216.751628
 20
55.011602
 30
0.0
 10
216.751628
 20
57.773742
 30
0.0
  0
SPLINE
  5
131
100
AcDbEntity
  8
decoupe
 62
7
100
AcDbSpline
 70
8
 71
3
 72
8
 73
4
 74
0
 40
0
 40
0
 40
0
 40
0
 40
1
 40
1
 40
1
 40
1
 10
193.438529
 20
81.823264
 30
0.0
 10
193.392560
 20
80.468188
 30
0.0
 10
193.421341
 20
79.193088
 30
0.0
 10
193.502469
 20
78.989465
 30
0.0
  0
SPLINE
  5
132
100
AcDbEntity
  8
decoupe
 62
7
100
AcDbSpline
 70
8
 71
3
 72
8
 73
4
 74
0
 40
0
 40
0
 40
0
 40
0
 40
1
 40
1
 40
1
 40
1
 10
193.502469
 20
78.989465
 30
0.0
 10
193.623088
 20
78.686762
 30
0.0
 10
195.756739
 20
78.632236
 30
0.0
 10
205.200910
 20
78.691258
 30
0.0
  0
LWPOLYLINE
  5
133
100
AcDbEntity
  8
decoupe
 62
7
100
AcDbPolyline
 90
8
 70
1
 10
200.611686
 20
57.811396
 30
0.0
 10
216.719144
 20
77.992673
 30
0.0
 10
216.751628
 20
78.763467
 30
0.0
 10
216.751628
 20
81.525057
 30
0.0
 10
216.751628
 20
84.287197
 30
0.0
 10
205.136970
 20
84.287197
 30
0.0
 10
193.521762
 20
84.287197
 30
0.0
 10
193.438529
 20
81.823264
 30
0.0
  0
SPLINE
  5
134
100
AcDbEntity
  8
decoupe
 62
7
100
AcDbSpline
 70
8
 71
3
 72
8
 73
4
 74
0
 40
0
 40
0
 40
0
 40
0
 40
1
 40
1
 40
1
 40
1
 10
209.740590
 20
78.719638
 30
0.0
 10
206.948137
 20
75.222467
 30
0.0
 10
203.975479
 20
72.022705
 30
0.0
 10
201.433354
 20
68.959002
 30
0.0
  0
SPLINE
  5
135
100
AcDbEntity
  8
decoupe
 62
7
100
AcDbSpline
 70
8
 71
3
 72
8
 73
4
 74
0
 40
0
 40
0
 40
0
 40
0
 40
1
 40
1
 40
1
 40
1
 10
201.433354
 20
68.959002
 30
0.0
 10
198.906263
 20
65.689063
 30
0.0
 10
195.574782
 20
62.114470
 30
0.0
 10
193.315855
 20
58.650392
 30
0.0
  0
LWPOLYLINE
  5
136
100
AcDbEntity
  8
decoupe
 62
7
100
AcDbPolyline
 90
2
 70
1
 10
205.200910
 20
78.691258
 30
0.0
 10
209.740590
 20
78.719638
 30
0.0
  0
LWPOLYLINE
  5
137
100
AcDbEntity
  8
decoupe
 62
7
100
AcDbPolyline
 90
2
 70
1
 10
193.315855
 20
58.650392
 30
0.0
 10
193.235131
 20
57.773742
 30
0.0
  0
SPLINE
  5
138
100
AcDbEntity
  8
decoupe
 62
7
100
AcDbSpline
 70
8
 71
3
 72
8
 73
4
 74
0
 40
0
 40
0
 40
0
 40
0
 40
1
 40
1
 40
1
 40
1
 10
232.459426
 20
55.309815
 30
0.0
 10
232.413454
 20
53.954737
 30
0.0
 10
232.443085
 20
52.677004
 30
0.0
 10
232.525530
 20
52.470409
 30
0.0
  0
SPLINE
  5
139
100
AcDbEntity
  8
decoupe
 62
7
100
AcDbSpline
 70
8
 71
3
 72
8
 73
4
 74
0
 40
0
 40
0
 40
0
 40
0
 40
1
 40
1
 40
1
 40
1
 10
232.525530
 20
52.470409
 30
0.0
 10
232.642881
 20
52.175907
 30
0.0
 10
233.435124
 20
52.111538
 30
0.0
 10
236.193909
 20
52.172368
 30
0.0
  0
LWPOLYLINE
  5
13a
100
AcDbEntity
  8
decoupe
 62
7
100
AcDbPolyline
 90
5
 70
1
 10
239.712613
 20
55.011775
 30
0.0
 10
239.712613
 20
57.773593
 30
0.0
 10
236.127804
 20
57.773593
 30
0.0
 10
232.542994
 20
57.773593
 30
0.0
 10
232.459426
 20
55.309815
 30
0.0
  0
LWPOLYLINE
  5
13b
100
AcDbEntity
  8
decoupe
 62
7
100
AcDbPolyline
 90
4
 70
1
 10
236.193909
 20
52.172368
 30
0.0
 10
239.712613
 20
52.249959
 30
0.0
 10
239.712613
 20
55.011775
 30
0.0
 10
239.712613
 20
55.011775
 30
0.0
  0
SPLINE
  5
13c
100
AcDbEntity
  8
decoupe
 62
7
100
AcDbSpline
 70
8
 71
3
 72
8
 73
4
 74
0
 40
0
 40
0
 40
0
 40
0
 40
1
 40
1
 40
1
 40
1
 10
232.468174
 20
72.273132
 30
0.0
 10
232.427021
 20
65.665483
 30
0.0
 10
232.456688
 20
60.100032
 30
0.0
 10
232.534277
 20
59.905454
 30
0.0
  0
SPLINE
  5
13d
100
AcDbEntity
  8
decoupe
 62
7
100
AcDbSpline
 70
8
 71
3
 72
8
 73
4
 74
0
 40
0
 40
0
 40
0
 40
0
 40
1
 40
1
 40
1
 40
1
 10
232.534277
 20
59.905454
 30
0.0
 10
232.640618
 20
59.638466
 30
0.0
 10
233.538339
 20
59.570719
 30
0.0
 10
236.193909
 20
59.629274
 30
0.0
  0
LWPOLYLINE
  5
13e
100
AcDbEntity
  8
decoupe
 62
7
100
AcDbPolyline
 90
5
 70
1
 10
239.712613
 20
71.996949
 30
0.0
 10
239.712613
 20
84.287036
 30
0.0
 10
236.127804
 20
84.287036
 30
0.0
 10
232.542994
 20
84.287036
 30
0.0
 10
232.468174
 20
72.273132
 30
0.0
  0
SPLINE
  5
13f
100
AcDbEntity
  8
decoupe
 62
7
100
AcDbSpline
 70
8
 71
3
 72
8
 73
4
 74
0
 40
0
 40
0
 40
0
 40
0
 40
1
 40
1
 40
1
 40
1
 10
61.962194
 20
63.438185
 30
0.0
 10
64.211993
 20
63.789845
 30
0.0
 10
66.422024
 20
64.734974
 30
0.0
 10
68.252100
 20
66.128079
 30
0.0
  0
SPLINE
  5
140
100
AcDbEntity
  8
decoupe
 62
7
100
AcDbSpline
 70
8
 71
3
 72
8
 73
4
 74
0
 40
0
 40
0
 40
0
 40
0
 40
1
 40
1
 40
1
 40
1
 10
68.252100
 20
66.128079
 30
0.0
 10
70.332115
 20
67.711450
 30
0.0
 10
71.314776
 20
69.894078
 30
0.0
 10
71.477180
 20
73.291424
 30
0.0
  0
SPLINE
  5
141
100
AcDbEntity
  8
decoupe
 62
7
100
AcDbSpline
 70
8
 71
3
 72
8
 73
4
 74
0
 40
0
 40
0
 40
0
 40
0
 40
1
 40
1
 40
1
 40
1
 10
71.477180
 20
73.291424
 30
0.0
 10
71.853535
 20
81.164473
 30
0.0
 10
66.955772
 20
84.980501
 30
0.0
 10
56.905615
 20
84.644673
 30
0.0
  0
LWPOLYLINE
  5
142
100
AcDbEntity
  8
decoupe
 62
7
100
AcDbPolyline
 90
4
 70
1
 10
236.193909
 20
59.629274
 30
0.0
 10
239.712613
 20
59.706866
 30
0.0
 10
239.712613
 20
71.996949
 30
0.0
 10
239.712613
 20
71.996949
 30
0.0
  0
SPLINE
  5
143
100
AcDbEntity
  8
decoupe
 62
7
100
AcDbSpline
 70
8
 71
3
 72
8
 73
4
 74
0
 40
0
 40
0
 40
0
 40
0
 40
1
 40
1
 40
1
 40
1
 10
57.622575
 20
78.606614
 30
0.0
 10
61.952037
 20
78.391430
 30
0.0
 10
62.765113
 20
77.989120
 30
0.0
 10
63.627437
 20
75.635401
 30
0.0
  0
SPLINE
  5
144
100
AcDbEntity
  8
decoupe
 62
7
100
AcDbSpline
 70
8
 71
3
 72
8
 73
4
 74
0
 40
0
 40
0
 40
0
 40
0
 40
1
 40
1
 40
1
 40
1
 10
63.627437
 20
75.635401
 30
0.0
 10
64.138319
 20
74.240938
 30
0.0
 10
63.867163
 20
72.324621
 30
0.0
 10
63.000506
 20
71.204816
 30
0.0
  0
SPLINE
  5
145
100
AcDbEntity
  8
decoupe
 62
7
100
AcDbSpline
 70
8
 71
3
 72
8
 73
4
 74
0
 40
0
 40
0
 40
0
 40
0
 40
1
 40
1
 40
1
 40
1
 10
63.000506
 20
71.204816
 30
0.0
 10
61.915356
 20
69.802694
 30
0.0
 10
60.744097
 20
69.384856
 30
0.0
 10
57.479184
 20
69.235131
 30
0.0
  0
LWPOLYLINE
  5
146
100
AcDbEntity
  8
decoupe
 62
7
100
AcDbPolyline
 90
5
 70
1
 10
56.905615
 20
84.644673
 30
0.0
 10
54.467943
 20
84.563216
 30
0.0
 10
54.467943
 20
81.663309
 30
0.0
 10
54.467943
 20
78.763399
 30
0.0
 10
57.622575
 20
78.606614
 30
0.0
  0
SPLINE
  5
147
100
AcDbEntity
  8
decoupe
 62
7
100
AcDbSpline
 70
8
 71
3
 72
8
 73
4
 74
0
 40
0
 40
0
 40
0
 40
0
 40
1
 40
1
 40
1
 40
1
 10
54.384823
 20
66.494034
 30
0.0
 10
54.339106
 20
65.062380
 30
0.0
 10
54.367326
 20
63.726351
 30
0.0
 10
54.447516
 20
63.525081
 30
0.0
  0
SPLINE
  5
148
100
AcDbEntity
  8
decoupe
 62
7
100
AcDbSpline
 70
8
 71
3
 72
8
 73
4
 74
0
 40
0
 40
0
 40
0
 40
0
 40
1
 40
1
 40
1
 40
1
 10
54.447516
 20
63.525081
 30
0.0
 10
54.626747
 20
63.075287
 30
0.0
 10
59.295146
 20
63.021303
 30
0.0
 10
61.962194
 20
63.438185
 30
0.0
  0
LWPOLYLINE
  5
149
100
AcDbEntity
  8
decoupe
 62
7
100
AcDbPolyline
 90
3
 70
1
 10
57.479184
 20
69.235131
 30
0.0
 10
54.467943
 20
69.097043
 30
0.0
 10
54.384823
 20
66.494034
 30
0.0
  0
LWPOLYLINE
  5
14a
100
AcDbEntity
  8
decoupe
 62
7
100
AcDbPolyline
 90
2
 70
1
 10
61.962194
 20
63.438185
 30
0.0
 10
61.962194
 20
63.438185
 30
0.0
  0
SPLINE
  5
14b
100
AcDbEntity
  8
decoupe
 62
7
100
AcDbSpline
 70
8
 71
3
 72
8
 73
4
 74
0
 40
0
 40
0
 40
0
 40
0
 40
1
 40
1
 40
1
 40
1
 10
63.615536
 20
135.734753
 30
0.0
 10
60.958420
 20
135.792879
 30
0.0
 10
59.994072
 20
135.722702
 30
0.0
 10
59.820031
 20
135.458570
 30
0.0
  0
SPLINE
  5
14c
100
AcDbEntity
  8
decoupe
 62
7
100
AcDbSpline
 70
8
 71
3
 72
8
 73
4
 74
0
 40
0
 40
0
 40
0
 40
0
 40
1
 40
1
 40
1
 40
1
 10
59.820031
 20
135.458570
 30
0.0
 10
59.550816
 20
135.049988
 30
0.0
 10
59.488194
 20
104.580575
 30
0.0
 10
59.755193
 20
103.910514
 30
0.0
  0
SPLINE
  5
14d
100
AcDbEntity
  8
decoupe
 62
7
100
AcDbSpline
 70
8
 71
3
 72
8
 73
4
 74
0
 40
0
 40
0
 40
0
 40
0
 40
1
 40
1
 40
1
 40
1
 10
59.755193
 20
103.910514
 30
0.0
 10
59.907568
 20
103.528111
 30
0.0
 10
60.441137
 20
103.476468
 30
0.0
 10
63.555093
 20
103.542697
 30
0.0
  0
LWPOLYLINE
  5
14e
100
AcDbEntity
  8
decoupe
 62
7
100
AcDbPolyline
 90
3
 70
1
 10
67.177722
 20
119.638290
 30
0.0
 10
67.177722
 20
135.656828
 30
0.0
 10
63.615536
 20
135.734753
 30
0.0
  0
LWPOLYLINE
  5
14f
100
AcDbEntity
  8
decoupe
 62
7
100
AcDbPolyline
 90
4
 70
1
 10
63.555093
 20
103.542697
 30
0.0
 10
67.177722
 20
103.619752
 30
0.0
 10
67.177722
 20
119.638290
 30
0.0
 10
67.177722
 20
119.638290
 30
0.0
  0
SPLINE
  5
150
100
AcDbEntity
  8
decoupe
 62
7
100
AcDbSpline
 70
8
 71
3
 72
8
 73
4
 74
0
 40
0
 40
0
 40
0
 40
0
 40
1
 40
1
 40
1
 40
1
 10
90.583111
 20
119.914473
 30
0.0
 10
90.542161
 20
111.256177
 30
0.0
 10
90.571879
 20
104.013031
 30
0.0
 10
90.649112
 20
103.818594
 30
0.0
  0
SPLINE
  5
151
100
AcDbEntity
  8
decoupe
 62
7
100
AcDbSpline
 70
8
 71
3
 72
8
 73
4
 74
0
 40
0
 40
0
 40
0
 40
0
 40
1
 40
1
 40
1
 40
1
 10
90.649112
 20
103.818594
 30
0.0
 10
90.755377
 20
103.551127
 30
0.0
 10
91.680987
 20
103.483901
 30
0.0
 10
94.451768
 20
103.542414
 30
0.0
  0
LWPOLYLINE
  5
152
100
AcDbEntity
  8
decoupe
 62
7
100
AcDbPolyline
 90
5
 70
1
 10
98.113969
 20
119.638290
 30
0.0
 10
98.113969
 20
135.656828
 30
0.0
 10
94.385768
 20
135.656828
 30
0.0
 10
90.657567
 20
135.656828
 30
0.0
 10
90.583111
 20
119.914473
 30
0.0
  0
SPLINE
  5
153
100
AcDbEntity
  8
decoupe
 62
7
100
AcDbSpline
 70
8
 71
3
 72
8
 73
4
 74
0
 40
0
 40
0
 40
0
 40
0
 40
1
 40
1
 40
1
 40
1
 10
119.232491
 20
103.629672
 30
0.0
 10
119.317025
 20
103.711076
 30
0.0
 10
119.077427
 20
104.513832
 30
0.0
 10
118.700053
 20
105.413568
 30
0.0
  0
SPLINE
  5
154
100
AcDbEntity
  8
decoupe
 62
7
100
AcDbSpline
 70
8
 71
3
 72
8
 73
4
 74
0
 40
0
 40
0
 40
0
 40
0
 40
1
 40
1
 40
1
 40
1
 10
118.700053
 20
105.413568
 30
0.0
 10
118.322683
 20
106.313309
 30
0.0
 10
117.691823
 20
108.887692
 30
0.0
 10
117.298145
 20
111.134421
 30
0.0
  0
SPLINE
  5
155
100
AcDbEntity
  8
decoupe
 62
7
100
AcDbSpline
 70
8
 71
3
 72
8
 73
4
 74
0
 40
0
 40
0
 40
0
 40
0
 40
1
 40
1
 40
1
 40
1
 10
117.298145
 20
111.134421
 30
0.0
 10
116.717033
 20
114.450873
 30
0.0
 10
116.421543
 20
115.469636
 30
0.0
 10
115.727497
 20
116.549599
 30
0.0
  0
SPLINE
  5
156
100
AcDbEntity
  8
decoupe
 62
7
100
AcDbSpline
 70
8
 71
3
 72
8
 73
4
 74
0
 40
0
 40
0
 40
0
 40
0
 40
1
 40
1
 40
1
 40
1
 10
115.727497
 20
116.549599
 30
0.0
 10
115.257318
 20
117.281215
 30
0.0
 10
114.872623
 20
117.941988
 30
0.0
 10
114.872623
 20
118.017979
 30
0.0
  0
SPLINE
  5
157
100
AcDbEntity
  8
decoupe
 62
7
100
AcDbSpline
 70
8
 71
3
 72
8
 73
4
 74
0
 40
0
 40
0
 40
0
 40
0
 40
1
 40
1
 40
1
 40
1
 10
114.872623
 20
118.017979
 30
0.0
 10
114.872623
 20
118.093970
 30
0.0
 10
115.180516
 20
118.551768
 30
0.0
 10
115.556829
 20
119.035308
 30
0.0
  0
SPLINE
  5
158
100
AcDbEntity
  8
decoupe
 62
7
100
AcDbSpline
 70
8
 71
3
 72
8
 73
4
 74
0
 40
0
 40
0
 40
0
 40
0
 40
1
 40
1
 40
1
 40
1
 10
115.556829
 20
119.035308
 30
0.0
 10
118.107485
 20
122.312752
 30
0.0
 10
118.573542
 20
126.873980
 30
0.0
 10
116.751323
 20
130.725613
 30
0.0
  0
SPLINE
  5
159
100
AcDbEntity
  8
decoupe
 62
7
100
AcDbSpline
 70
8
 71
3
 72
8
 73
4
 74
0
 40
0
 40
0
 40
0
 40
0
 40
1
 40
1
 40
1
 40
1
 10
116.751323
 20
130.725613
 30
0.0
 10
116.022055
 20
132.267068
 30
0.0
 10
114.150817
 20
133.899055
 30
0.0
 10
111.920421
 20
134.938852
 30
0.0
  0
SPLINE
  5
15a
100
AcDbEntity
  8
decoupe
 62
7
100
AcDbSpline
 70
8
 71
3
 72
8
 73
4
 74
0
 40
0
 40
0
 40
0
 40
0
 40
1
 40
1
 40
1
 40
1
 10
111.920421
 20
134.938852
 30
0.0
 10
110.361019
 20
135.665834
 30
0.0
 10
106.686025
 20
136.122041
 30
0.0
 10
103.257844
 20
136.014201
 30
0.0
  0
LWPOLYLINE
  5
15b
100
AcDbEntity
  8
decoupe
 62
7
100
AcDbPolyline
 90
4
 70
1
 10
94.451768
 20
103.542414
 30
0.0
 10
98.113969
 20
103.619752
 30
0.0
 10
98.113969
 20
119.638290
 30
0.0
 10
98.113969
 20
119.638290
 30
0.0
  0
SPLINE
  5
15c
100
AcDbEntity
  8
decoupe
 62
7
100
AcDbSpline
 70
8
 71
3
 72
8
 73
4
 74
0
 40
0
 40
0
 40
0
 40
0
 40
1
 40
1
 40
1
 40
1
 10
103.831413
 20
130.243775
 30
0.0
 10
107.355036
 20
130.058804
 30
0.0
 10
108.218348
 20
129.814168
 30
0.0
 10
109.082944
 20
128.755654
 30
0.0
  0
SPLINE
  5
15d
100
AcDbEntity
  8
decoupe
 62
7
100
AcDbSpline
 70
8
 71
3
 72
8
 73
4
 74
0
 40
0
 40
0
 40
0
 40
0
 40
1
 40
1
 40
1
 40
1
 10
109.082944
 20
128.755654
 30
0.0
 10
110.667721
 20
126.815421
 30
0.0
 10
110.487728
 20
124.081148
 30
0.0
 10
108.674287
 20
122.547792
 30
0.0
  0
SPLINE
  5
15e
100
AcDbEntity
  8
decoupe
 62
7
100
AcDbSpline
 70
8
 71
3
 72
8
 73
4
 74
0
 40
0
 40
0
 40
0
 40
0
 40
1
 40
1
 40
1
 40
1
 10
108.674287
 20
122.547792
 30
0.0
 10
107.467276
 20
121.527206
 30
0.0
 10
107.130898
 20
121.449572
 30
0.0
 10
103.544630
 20
121.363895
 30
0.0
  0
LWPOLYLINE
  5
15f
100
AcDbEntity
  8
decoupe
 62
7
100
AcDbPolyline
 90
5
 70
1
 10
103.257844
 20
136.014201
 30
0.0
 10
100.676781
 20
135.933008
 30
0.0
 10
100.676781
 20
133.171193
 30
0.0
 10
100.676781
 20
130.409374
 30
0.0
 10
103.831413
 20
130.243775
 30
0.0
  0
SPLINE
  5
160
100
AcDbEntity
  8
decoupe
 62
7
100
AcDbSpline
 70
8
 71
3
 72
8
 73
4
 74
0
 40
0
 40
0
 40
0
 40
0
 40
1
 40
1
 40
1
 40
1
 10
103.885698
 20
115.331178
 30
0.0
 10
108.475938
 20
115.096031
 30
0.0
 10
109.038754
 20
114.630155
 30
0.0
 10
109.692838
 20
110.524293
 30
0.0
  0
SPLINE
  5
161
100
AcDbEntity
  8
decoupe
 62
7
100
AcDbSpline
 70
8
 71
3
 72
8
 73
4
 74
0
 40
0
 40
0
 40
0
 40
0
 40
1
 40
1
 40
1
 40
1
 10
109.692838
 20
110.524293
 30
0.0
 10
110.220362
 20
107.212847
 30
0.0
 10
110.865917
 20
104.926926
 30
0.0
 10
111.488974
 20
104.164122
 30
0.0
  0
SPLINE
  5
162
100
AcDbEntity
  8
decoupe
 62
7
100
AcDbSpline
 70
8
 71
3
 72
8
 73
4
 74
0
 40
0
 40
0
 40
0
 40
0
 40
1
 40
1
 40
1
 40
1
 10
111.488974
 20
104.164122
 30
0.0
 10
112.027676
 20
103.504594
 30
0.0
 10
112.164554
 20
103.481660
 30
0.0
 10
115.562603
 20
103.481660
 30
0.0
  0
SPLINE
  5
163
100
AcDbEntity
  8
decoupe
 62
7
100
AcDbSpline
 70
8
 71
3
 72
8
 73
4
 74
0
 40
0
 40
0
 40
0
 40
0
 40
1
 40
1
 40
1
 40
1
 10
115.562603
 20
103.481660
 30
0.0
 10
117.496511
 20
103.481660
 30
0.0
 10
119.147963
 20
103.548265
 30
0.0
 10
119.232491
 20
103.629672
 30
0.0
  0
LWPOLYLINE
  5
164
100
AcDbEntity
  8
decoupe
 62
7
100
AcDbPolyline
 90
5
 70
1
 10
103.544630
 20
121.363895
 30
0.0
 10
100.676781
 20
121.295380
 30
0.0
 10
100.676781
 20
118.395474
 30
0.0
 10
100.676781
 20
115.495564
 30
0.0
 10
103.885698
 20
115.331178
 30
0.0
  0
LWPOLYLINE
  5
165
100
AcDbEntity
  8
decoupe
 62
7
100
AcDbPolyline
 90
2
 70
1
 10
119.232491
 20
103.629672
 30
0.0
 10
119.232491
 20
103.629672
 30
0.0
  0
SPLINE
  5
166
100
AcDbEntity
  8
decoupe
 62
7
100
AcDbSpline
 70
8
 71
3
 72
8
 73
4
 74
0
 40
0
 40
0
 40
0
 40
0
 40
1
 40
1
 40
1
 40
1
 10
146.229146
 20
123.968632
 30
0.0
 10
144.977304
 20
127.196097
 30
0.0
 10
142.797609
 20
132.797722
 30
0.0
 10
142.371188
 20
133.812235
 30
0.0
  0
LWPOLYLINE
  5
167
100
AcDbEntity
  8
decoupe
 62
7
100
AcDbPolyline
 90
2
 70
1
 10
149.482604
 20
116.167439
 30
0.0
 10
146.229146
 20
123.968632
 30
0.0
  0
SPLINE
  5
168
100
AcDbEntity
  8
decoupe
 62
7
100
AcDbSpline
 70
8
 71
3
 72
8
 73
4
 74
0
 40
0
 40
0
 40
0
 40
0
 40
1
 40
1
 40
1
 40
1
 10
138.348971
 20
135.735424
 30
0.0
 10
137.902586
 20
135.746233
 30
0.0
 10
137.469745
 20
135.749789
 30
0.0
 10
137.069048
 20
135.746995
 30
0.0
  0
SPLINE
  5
169
100
AcDbEntity
  8
decoupe
 62
7
100
AcDbSpline
 70
8
 71
3
 72
8
 73
4
 74
0
 40
0
 40
0
 40
0
 40
0
 40
1
 40
1
 40
1
 40
1
 10
137.069048
 20
135.746995
 30
0.0
 10
135.866965
 20
135.738613
 30
0.0
 10
134.956420
 20
135.672822
 30
0.0
 10
134.853714
 20
135.573914
 30
0.0
  0
LWPOLYLINE
  5
16a
100
AcDbEntity
  8
decoupe
 62
7
100
AcDbPolyline
 90
3
 70
1
 10
142.371188
 20
133.812235
 30
0.0
 10
141.595630
 20
135.656602
 30
0.0
 10
138.348971
 20
135.735424
 30
0.0
  0
SPLINE
  5
16b
100
AcDbEntity
  8
decoupe
 62
7
100
AcDbSpline
 70
8
 71
3
 72
8
 73
4
 74
0
 40
0
 40
0
 40
0
 40
0
 40
1
 40
1
 40
1
 40
1
 10
147.138650
 20
103.617759
 30
0.0
 10
149.239083
 20
103.626536
 30
0.0
 10
151.530149
 20
103.657499
 30
0.0
 10
153.383316
 20
103.631701
 30
0.0
  0
SPLINE
  5
16c
100
AcDbEntity
  8
decoupe
 62
7
100
AcDbSpline
 70
8
 71
3
 72
8
 73
4
 74
0
 40
0
 40
0
 40
0
 40
0
 40
1
 40
1
 40
1
 40
1
 10
153.383316
 20
103.631701
 30
0.0
 10
153.627500
 20
103.639914
 30
0.0
 10
154.718774
 20
107.527830
 30
0.0
 10
156.248585
 20
111.629128
 30
0.0
  0
SPLINE
  5
16d
100
AcDbEntity
  8
decoupe
 62
7
100
AcDbSpline
 70
8
 71
3
 72
8
 73
4
 74
0
 40
0
 40
0
 40
0
 40
0
 40
1
 40
1
 40
1
 40
1
 10
156.248585
 20
111.629128
 30
0.0
 10
157.778394
 20
115.730427
 30
0.0
 10
159.165248
 20
119.396891
 30
0.0
 10
159.329879
 20
119.776641
 30
0.0
  0
SPLINE
  5
16e
100
AcDbEntity
  8
decoupe
 62
7
100
AcDbSpline
 70
8
 71
3
 72
8
 73
4
 74
0
 40
0
 40
0
 40
0
 40
0
 40
1
 40
1
 40
1
 40
1
 10
159.329879
 20
119.776641
 30
0.0
 10
160.356990
 20
122.145840
 30
0.0
 10
165.023382
 20
134.849436
 30
0.0
 10
165.023382
 20
135.276263
 30
0.0
  0
SPLINE
  5
16f
100
AcDbEntity
  8
decoupe
 62
7
100
AcDbSpline
 70
8
 71
3
 72
8
 73
4
 74
0
 40
0
 40
0
 40
0
 40
0
 40
1
 40
1
 40
1
 40
1
 10
165.023382
 20
135.276263
 30
0.0
 10
165.023382
 20
135.753405
 30
0.0
 10
164.761968
 20
135.794956
 30
0.0
 10
161.760738
 20
135.794956
 30
0.0
  0
SPLINE
  5
170
100
AcDbEntity
  8
decoupe
 62
7
100
AcDbSpline
 70
8
 71
3
 72
8
 73
4
 74
0
 40
0
 40
0
 40
0
 40
0
 40
1
 40
1
 40
1
 40
1
 10
161.760738
 20
135.794956
 30
0.0
 10
159.438521
 20
135.794956
 30
0.0
 10
158.408943
 20
135.691954
 30
0.0
 10
158.189414
 20
135.437217
 30
0.0
  0
SPLINE
  5
171
100
AcDbEntity
  8
decoupe
 62
7
100
AcDbSpline
 70
8
 71
3
 72
8
 73
4
 74
0
 40
0
 40
0
 40
0
 40
0
 40
1
 40
1
 40
1
 40
1
 10
158.189414
 20
135.437217
 30
0.0
 10
158.019761
 20
135.240356
 30
0.0
 10
156.643395
 20
131.791484
 30
0.0
 10
155.131270
 20
127.773120
 30
0.0
  0
SPLINE
  5
172
100
AcDbEntity
  8
decoupe
 62
7
100
AcDbSpline
 70
8
 71
3
 72
8
 73
4
 74
0
 40
0
 40
0
 40
0
 40
0
 40
1
 40
1
 40
1
 40
1
 10
155.131270
 20
127.773120
 30
0.0
 10
153.619146
 20
123.754758
 30
0.0
 10
151.999851
 20
119.509715
 30
0.0
 10
151.532937
 20
118.340175
 30
0.0
  0
LWPOLYLINE
  5
173
100
AcDbEntity
  8
decoupe
 62
7
100
AcDbPolyline
 90
2
 70
1
 10
134.853714
 20
135.573914
 30
0.0
 10
147.138650
 20
103.617759
 30
0.0
  0
SPLINE
  5
174
100
AcDbEntity
  8
decoupe
 62
7
100
AcDbSpline
 70
8
 71
3
 72
8
 73
4
 74
0
 40
0
 40
0
 40
0
 40
0
 40
1
 40
1
 40
1
 40
1
 10
77.230836
 20
114.827126
 30
0.0
 10
80.761177
 20
115.300001
 30
0.0
 10
84.045690
 20
117.201030
 30
0.0
 10
85.520982
 20
119.625353
 30
0.0
  0
SPLINE
  5
175
100
AcDbEntity
  8
decoupe
 62
7
100
AcDbSpline
 70
8
 71
3
 72
8
 73
4
 74
0
 40
0
 40
0
 40
0
 40
0
 40
1
 40
1
 40
1
 40
1
 10
85.520982
 20
119.625353
 30
0.0
 10
86.509392
 20
121.249593
 30
0.0
 10
87.186270
 20
124.476942
 30
0.0
 10
86.940768
 20
126.394890
 30
0.0
  0
SPLINE
  5
176
100
AcDbEntity
  8
decoupe
 62
7
100
AcDbSpline
 70
8
 71
3
 72
8
 73
4
 74
0
 40
0
 40
0
 40
0
 40
0
 40
1
 40
1
 40
1
 40
1
 10
86.940768
 20
126.394890
 30
0.0
 10
86.559105
 20
129.376554
 30
0.0
 10
85.719866
 20
131.353109
 30
0.0
 10
84.251332
 20
132.728982
 30
0.0
  0
SPLINE
  5
177
100
AcDbEntity
  8
decoupe
 62
7
100
AcDbSpline
 70
8
 71
3
 72
8
 73
4
 74
0
 40
0
 40
0
 40
0
 40
0
 40
1
 40
1
 40
1
 40
1
 10
84.251332
 20
132.728982
 30
0.0
 10
81.537282
 20
135.271778
 30
0.0
 10
78.172908
 20
136.198263
 30
0.0
 10
72.321595
 20
136.014201
 30
0.0
  0
LWPOLYLINE
  5
178
100
AcDbEntity
  8
decoupe
 62
7
100
AcDbPolyline
 90
3
 70
1
 10
151.532937
 20
118.340175
 30
0.0
 10
150.684066
 20
116.214136
 30
0.0
 10
149.482604
 20
116.167439
 30
0.0
  0
SPLINE
  5
179
100
AcDbEntity
  8
decoupe
 62
7
100
AcDbSpline
 70
8
 71
3
 72
8
 73
4
 74
0
 40
0
 40
0
 40
0
 40
0
 40
1
 40
1
 40
1
 40
1
 10
73.038558
 20
129.980295
 30
0.0
 10
77.011959
 20
129.796080
 30
0.0
 10
77.870730
 20
129.444979
 30
0.0
 10
78.782003
 20
127.632133
 30
0.0
  0
SPLINE
  5
17a
100
AcDbEntity
  8
decoupe
 62
7
100
AcDbSpline
 70
8
 71
3
 72
8
 73
4
 74
0
 40
0
 40
0
 40
0
 40
0
 40
1
 40
1
 40
1
 40
1
 10
78.782003
 20
127.632133
 30
0.0
 10
79.884659
 20
125.438572
 30
0.0
 10
79.274732
 20
123.060934
 30
0.0
 10
77.231683
 20
121.588626
 30
0.0
  0
SPLINE
  5
17b
100
AcDbEntity
  8
decoupe
 62
7
100
AcDbSpline
 70
8
 71
3
 72
8
 73
4
 74
0
 40
0
 40
0
 40
0
 40
0
 40
1
 40
1
 40
1
 40
1
 10
77.231683
 20
121.588626
 30
0.0
 10
76.572454
 20
121.113559
 30
0.0
 10
75.886307
 20
120.996318
 30
0.0
 10
73.091026
 20
120.881106
 30
0.0
  0
LWPOLYLINE
  5
17c
100
AcDbEntity
  8
decoupe
 62
7
100
AcDbPolyline
 90
5
 70
1
 10
72.321595
 20
136.014201
 30
0.0
 10
69.740534
 20
135.933008
 30
0.0
 10
69.740534
 20
133.033101
 30
0.0
 10
69.740534
 20
130.133195
 30
0.0
 10
73.038558
 20
129.980295
 30
0.0
  0
SPLINE
  5
17d
100
AcDbEntity
  8
decoupe
 62
7
100
AcDbSpline
 70
8
 71
3
 72
8
 73
4
 74
0
 40
0
 40
0
 40
0
 40
0
 40
1
 40
1
 40
1
 40
1
 10
69.657832
 20
118.000859
 30
0.0
 10
69.612349
 20
116.492672
 30
0.0
 10
69.640560
 20
115.094501
 30
0.0
 10
69.720531
 20
114.893816
 30
0.0
  0
SPLINE
  5
17e
100
AcDbEntity
  8
decoupe
 62
7
100
AcDbSpline
 70
8
 71
3
 72
8
 73
4
 74
0
 40
0
 40
0
 40
0
 40
0
 40
1
 40
1
 40
1
 40
1
 10
69.720531
 20
114.893816
 30
0.0
 10
69.903789
 20
114.433906
 30
0.0
 10
74.022122
 20
114.397339
 30
0.0
 10
77.230836
 20
114.827126
 30
0.0
  0
LWPOLYLINE
  5
17f
100
AcDbEntity
  8
decoupe
 62
7
100
AcDbPolyline
 90
3
 70
1
 10
73.091026
 20
120.881106
 30
0.0
 10
69.740534
 20
120.743018
 30
0.0
 10
69.657832
 20
118.000859
 30
0.0
  0
LWPOLYLINE
  5
180
100
AcDbEntity
  8
decoupe
 62
7
100
AcDbPolyline
 90
2
 70
1
 10
77.230836
 20
114.827126
 30
0.0
 10
77.230836
 20
114.827126
 30
0.0
  0
SPLINE
  5
181
100
AcDbEntity
  8
decoupe
 62
7
100
AcDbSpline
 70
8
 71
3
 72
8
 73
4
 74
0
 40
0
 40
0
 40
0
 40
0
 40
1
 40
1
 40
1
 40
1
 10
13.788698
 20
171.422357
 30
0.0
 10
13.747753
 20
162.688109
 30
0.0
 10
13.777457
 20
155.382827
 30
0.0
 10
13.854696
 20
155.188387
 30
0.0
  0
SPLINE
  5
182
100
AcDbEntity
  8
decoupe
 62
7
100
AcDbSpline
 70
8
 71
3
 72
8
 73
4
 74
0
 40
0
 40
0
 40
0
 40
0
 40
1
 40
1
 40
1
 40
1
 10
13.854696
 20
155.188387
 30
0.0
 10
13.960955
 20
154.920919
 30
0.0
 10
14.886555
 20
154.853694
 30
0.0
 10
17.657343
 20
154.912207
 30
0.0
  0
LWPOLYLINE
  5
183
100
AcDbEntity
  8
decoupe
 62
7
100
AcDbPolyline
 90
5
 70
1
 10
21.319544
 20
171.146174
 30
0.0
 10
21.319544
 20
187.302803
 30
0.0
 10
17.591342
 20
187.302803
 30
0.0
 10
13.863141
 20
187.302803
 30
0.0
 10
13.788698
 20
171.422357
 30
0.0
  0
LWPOLYLINE
  5
184
100
AcDbEntity
  8
decoupe
 62
7
100
AcDbPolyline
 90
4
 70
1
 10
17.657343
 20
154.912207
 30
0.0
 10
21.319544
 20
154.989544
 30
0.0
 10
21.319544
 20
171.146174
 30
0.0
 10
21.319544
 20
171.146174
 30
0.0
  0
SPLINE
  5
185
100
AcDbEntity
  8
decoupe
 62
7
100
AcDbSpline
 70
8
 71
3
 72
8
 73
4
 74
0
 40
0
 40
0
 40
0
 40
0
 40
1
 40
1
 40
1
 40
1
 10
43.596058
 20
171.422357
 30
0.0
 10
43.555113
 20
162.688109
 30
0.0
 10
43.584882
 20
155.382714
 30
0.0
 10
43.662154
 20
155.188136
 30
0.0
  0
SPLINE
  5
186
100
AcDbEntity
  8
decoupe
 62
7
100
AcDbSpline
 70
8
 71
3
 72
8
 73
4
 74
0
 40
0
 40
0
 40
0
 40
0
 40
1
 40
1
 40
1
 40
1
 10
43.662154
 20
155.188136
 30
0.0
 10
43.768230
 20
154.921134
 30
0.0
 10
44.665688
 20
154.853398
 30
0.0
 10
47.321411
 20
154.911956
 30
0.0
  0
LWPOLYLINE
  5
187
100
AcDbEntity
  8
decoupe
 62
7
100
AcDbPolyline
 90
5
 70
1
 10
50.840118
 20
171.146174
 30
0.0
 10
50.840118
 20
187.302803
 30
0.0
 10
47.255309
 20
187.302803
 30
0.0
 10
43.670499
 20
187.302803
 30
0.0
 10
43.596058
 20
171.422357
 30
0.0
  0
SPLINE
  5
188
100
AcDbEntity
  8
decoupe
 62
7
100
AcDbSpline
 70
8
 71
3
 72
8
 73
4
 74
0
 40
0
 40
0
 40
0
 40
0
 40
1
 40
1
 40
1
 40
1
 10
72.271486
 20
155.024560
 30
0.0
 10
72.370349
 20
155.119770
 30
0.0
 10
72.250941
 20
155.570688
 30
0.0
 10
72.006124
 20
156.026601
 30
0.0
  0
SPLINE
  5
189
100
AcDbEntity
  8
decoupe
 62
7
100
AcDbSpline
 70
8
 71
3
 72
8
 73
4
 74
0
 40
0
 40
0
 40
0
 40
0
 40
1
 40
1
 40
1
 40
1
 10
72.006124
 20
156.026601
 30
0.0
 10
71.303301
 20
157.335463
 30
0.0
 10
70.818787
 20
159.149782
 30
0.0
 10
70.207550
 20
162.761572
 30
0.0
  0
SPLINE
  5
18a
100
AcDbEntity
  8
decoupe
 62
7
100
AcDbSpline
 70
8
 71
3
 72
8
 73
4
 74
0
 40
0
 40
0
 40
0
 40
0
 40
1
 40
1
 40
1
 40
1
 10
70.207550
 20
162.761572
 30
0.0
 10
69.652648
 20
166.040475
 30
0.0
 10
69.260280
 20
167.258075
 30
0.0
 10
68.304715
 20
168.666482
 30
0.0
  0
SPLINE
  5
18b
100
AcDbEntity
  8
decoupe
 62
7
100
AcDbSpline
 70
8
 71
3
 72
8
 73
4
 74
0
 40
0
 40
0
 40
0
 40
0
 40
1
 40
1
 40
1
 40
1
 10
68.304715
 20
168.666482
 30
0.0
 10
67.847729
 20
169.340028
 30
0.0
 10
67.866339
 20
169.412534
 30
0.0
 10
68.871798
 20
170.875935
 30
0.0
  0
SPLINE
  5
18c
100
AcDbEntity
  8
decoupe
 62
7
100
AcDbSpline
 70
8
 71
3
 72
8
 73
4
 74
0
 40
0
 40
0
 40
0
 40
0
 40
1
 40
1
 40
1
 40
1
 10
68.871798
 20
170.875935
 30
0.0
 10
70.388790
 20
173.083855
 30
0.0
 10
70.853991
 20
174.881574
 30
0.0
 10
70.688440
 20
177.896156
 30
0.0
  0
SPLINE
  5
18d
100
AcDbEntity
  8
decoupe
 62
7
100
AcDbSpline
 70
8
 71
3
 72
8
 73
4
 74
0
 40
0
 40
0
 40
0
 40
0
 40
1
 40
1
 40
1
 40
1
 10
70.688440
 20
177.896156
 30
0.0
 10
70.573488
 20
179.989333
 30
0.0
 10
70.405317
 20
180.675661
 30
0.0
 10
69.659452
 20
182.095575
 30
0.0
  0
SPLINE
  5
18e
100
AcDbEntity
  8
decoupe
 62
7
100
AcDbSpline
 70
8
 71
3
 72
8
 73
4
 74
0
 40
0
 40
0
 40
0
 40
0
 40
1
 40
1
 40
1
 40
1
 10
69.659452
 20
182.095575
 30
0.0
 10
67.623837
 20
185.970805
 30
0.0
 10
63.533517
 20
187.604666
 30
0.0
 10
56.414170
 20
187.386350
 30
0.0
  0
LWPOLYLINE
  5
18f
100
AcDbEntity
  8
decoupe
 62
7
100
AcDbPolyline
 90
4
 70
1
 10
47.321411
 20
154.911956
 30
0.0
 10
50.840118
 20
154.989544
 30
0.0
 10
50.840118
 20
171.146174
 30
0.0
 10
50.840118
 20
171.146174
 30
0.0
  0
SPLINE
  5
190
100
AcDbEntity
  8
decoupe
 62
7
100
AcDbSpline
 70
8
 71
3
 72
8
 73
4
 74
0
 40
0
 40
0
 40
0
 40
0
 40
1
 40
1
 40
1
 40
1
 10
56.844348
 20
181.622381
 30
0.0
 10
61.093449
 20
181.411192
 30
0.0
 10
61.863388
 20
181.049656
 30
0.0
 10
62.821188
 20
178.815856
 30
0.0
  0
SPLINE
  5
191
100
AcDbEntity
  8
decoupe
 62
7
100
AcDbSpline
 70
8
 71
3
 72
8
 73
4
 74
0
 40
0
 40
0
 40
0
 40
0
 40
1
 40
1
 40
1
 40
1
 10
62.821188
 20
178.815856
 30
0.0
 10
63.595583
 20
177.009784
 30
0.0
 10
62.901443
 20
174.738262
 30
0.0
 10
61.222580
 20
173.584537
 30
0.0
  0
SPLINE
  5
192
100
AcDbEntity
  8
decoupe
 62
7
100
AcDbSpline
 70
8
 71
3
 72
8
 73
4
 74
0
 40
0
 40
0
 40
0
 40
0
 40
1
 40
1
 40
1
 40
1
 10
61.222580
 20
173.584537
 30
0.0
 10
60.411100
 20
173.026883
 30
0.0
 10
59.848025
 20
172.922991
 30
0.0
 10
56.988179
 20
172.803264
 30
0.0
  0
LWPOLYLINE
  5
193
100
AcDbEntity
  8
decoupe
 62
7
100
AcDbPolyline
 90
5
 70
1
 10
56.414170
 20
187.386350
 30
0.0
 10
53.689716
 20
187.302803
 30
0.0
 10
53.689716
 20
184.540985
 30
0.0
 10
53.689716
 20
181.779170
 30
0.0
 10
56.844348
 20
181.622381
 30
0.0
  0
SPLINE
  5
194
100
AcDbEntity
  8
decoupe
 62
7
100
AcDbSpline
 70
8
 71
3
 72
8
 73
4
 74
0
 40
0
 40
0
 40
0
 40
0
 40
1
 40
1
 40
1
 40
1
 10
56.874207
 20
166.702102
 30
0.0
 10
61.469538
 20
166.466515
 30
0.0
 10
61.903463
 20
166.082258
 30
0.0
 10
62.714432
 20
161.530338
 30
0.0
  0
SPLINE
  5
195
100
AcDbEntity
  8
decoupe
 62
7
100
AcDbSpline
 70
8
 71
3
 72
8
 73
4
 74
0
 40
0
 40
0
 40
0
 40
0
 40
1
 40
1
 40
1
 40
1
 10
62.714432
 20
161.530338
 30
0.0
 10
63.415477
 20
157.595418
 30
0.0
 10
63.751878
 20
156.452169
 30
0.0
 10
64.465928
 20
155.577964
 30
0.0
  0
SPLINE
  5
196
100
AcDbEntity
  8
decoupe
 62
7
100
AcDbSpline
 70
8
 71
3
 72
8
 73
4
 74
0
 40
0
 40
0
 40
0
 40
0
 40
1
 40
1
 40
1
 40
1
 10
64.465928
 20
155.577964
 30
0.0
 10
65.049109
 20
154.863984
 30
0.0
 10
65.119972
 20
154.851456
 30
0.0
 10
68.575535
 20
154.851456
 30
0.0
  0
SPLINE
  5
197
100
AcDbEntity
  8
decoupe
 62
7
100
AcDbSpline
 70
8
 71
3
 72
8
 73
4
 74
0
 40
0
 40
0
 40
0
 40
0
 40
1
 40
1
 40
1
 40
1
 10
68.575535
 20
154.851456
 30
0.0
 10
70.509446
 20
154.851456
 30
0.0
 10
72.172621
 20
154.929352
 30
0.0
 10
72.271486
 20
155.024560
 30
0.0
  0
LWPOLYLINE
  5
198
100
AcDbEntity
  8
decoupe
 62
7
100
AcDbPolyline
 90
5
 70
1
 10
56.988179
 20
172.803264
 30
0.0
 10
53.689716
 20
172.665173
 30
0.0
 10
53.689716
 20
169.765266
 30
0.0
 10
53.689716
 20
166.865359
 30
0.0
 10
56.874207
 20
166.702102
 30
0.0
  0
LWPOLYLINE
  5
199
100
AcDbEntity
  8
decoupe
 62
7
100
AcDbPolyline
 90
2
 70
1
 10
72.271486
 20
155.024560
 30
0.0
 10
72.271486
 20
155.024560
 30
0.0
  0
SPLINE
  5
19a
100
AcDbEntity
  8
decoupe
 62
7
100
AcDbSpline
 70
8
 71
3
 72
8
 73
4
 74
0
 40
0
 40
0
 40
0
 40
0
 40
1
 40
1
 40
1
 40
1
 10
88.913826
 20
161.127756
 30
0.0
 10
84.984367
 20
162.389146
 30
0.0
 10
82.231724
 20
167.918582
 30
0.0
 10
83.041044
 20
172.924831
 30
0.0
  0
SPLINE
  5
19b
100
AcDbEntity
  8
decoupe
 62
7
100
AcDbSpline
 70
8
 71
3
 72
8
 73
4
 74
0
 40
0
 40
0
 40
0
 40
0
 40
1
 40
1
 40
1
 40
1
 10
83.041044
 20
172.924831
 30
0.0
 10
83.634354
 20
176.594861
 30
0.0
 10
85.860438
 20
179.712530
 30
0.0
 10
88.695657
 20
180.844216
 30
0.0
  0
LWPOLYLINE
  5
19c
100
AcDbEntity
  8
decoupe
 62
7
100
AcDbPolyline
 90
3
 70
1
 10
90.111371
 20
157.889454
 30
0.0
 10
90.111371
 20
160.743330
 30
0.0
 10
88.913826
 20
161.127756
 30
0.0
  0
SPLINE
  5
19d
100
AcDbEntity
  8
decoupe
 62
7
100
AcDbSpline
 70
8
 71
3
 72
8
 73
4
 74
0
 40
0
 40
0
 40
0
 40
0
 40
1
 40
1
 40
1
 40
1
 10
90.254765
 20
184.186204
 30
0.0
 10
90.254765
 20
186.361609
 30
0.0
 10
90.167762
 20
186.938017
 30
0.0
 10
89.820019
 20
187.066527
 30
0.0
  0
SPLINE
  5
19e
100
AcDbEntity
  8
decoupe
 62
7
100
AcDbSpline
 70
8
 71
3
 72
8
 73
4
 74
0
 40
0
 40
0
 40
0
 40
0
 40
1
 40
1
 40
1
 40
1
 10
89.820019
 20
187.066527
 30
0.0
 10
89.580909
 20
187.154888
 30
0.0
 10
88.407375
 20
187.005409
 30
0.0
 10
87.212167
 20
186.734349
 30
0.0
  0
SPLINE
  5
19f
100
AcDbEntity
  8
decoupe
 62
7
100
AcDbSpline
 70
8
 71
3
 72
8
 73
4
 74
0
 40
0
 40
0
 40
0
 40
0
 40
1
 40
1
 40
1
 40
1
 10
87.212167
 20
186.734349
 30
0.0
 10
78.483900
 20
184.754870
 30
0.0
 10
73.222042
 20
175.337027
 30
0.0
 10
75.752988
 20
166.224337
 30
0.0
  0
SPLINE
  5
1a0
100
AcDbEntity
  8
decoupe
 62
7
100
AcDbSpline
 70
8
 71
3
 72
8
 73
4
 74
0
 40
0
 40
0
 40
0
 40
0
 40
1
 40
1
 40
1
 40
1
 10
75.752988
 20
166.224337
 30
0.0
 10
76.643704
 20
163.017302
 30
0.0
 10
80.118941
 20
158.692387
 30
0.0
 10
83.204473
 20
156.951003
 30
0.0
  0
SPLINE
  5
1a1
100
AcDbEntity
  8
decoupe
 62
7
100
AcDbSpline
 70
8
 71
3
 72
8
 73
4
 74
0
 40
0
 40
0
 40
0
 40
0
 40
1
 40
1
 40
1
 40
1
 10
83.204473
 20
156.951003
 30
0.0
 10
85.024587
 20
155.923779
 30
0.0
 10
88.872255
 20
154.775538
 30
0.0
 10
89.824588
 20
154.975391
 30
0.0
  0
SPLINE
  5
1a2
100
AcDbEntity
  8
decoupe
 62
7
100
AcDbSpline
 70
8
 71
3
 72
8
 73
4
 74
0
 40
0
 40
0
 40
0
 40
0
 40
1
 40
1
 40
1
 40
1
 10
89.824588
 20
154.975391
 30
0.0
 10
89.993244
 20
155.010787
 30
0.0
 10
90.111371
 20
156.211112
 30
0.0
 10
90.111371
 20
157.889454
 30
0.0
  0
LWPOLYLINE
  5
1a3
100
AcDbEntity
  8
decoupe
 62
7
100
AcDbPolyline
 90
3
 70
1
 10
88.695657
 20
180.844216
 30
0.0
 10
90.254765
 20
181.466541
 30
0.0
 10
90.254765
 20
184.186204
 30
0.0
  0
SPLINE
  5
1a4
100
AcDbEntity
  8
decoupe
 62
7
100
AcDbSpline
 70
8
 71
3
 72
8
 73
4
 74
0
 40
0
 40
0
 40
0
 40
0
 40
1
 40
1
 40
1
 40
1
 10
96.832564
 20
155.588321
 30
0.0
 10
101.611565
 20
156.847266
 30
0.0
 10
106.235596
 20
161.550316
 30
0.0
 10
107.637318
 20
166.577716
 30
0.0
  0
SPLINE
  5
1a5
100
AcDbEntity
  8
decoupe
 62
7
100
AcDbSpline
 70
8
 71
3
 72
8
 73
4
 74
0
 40
0
 40
0
 40
0
 40
0
 40
1
 40
1
 40
1
 40
1
 10
107.637318
 20
166.577716
 30
0.0
 10
108.273602
 20
168.859810
 30
0.0
 10
108.263284
 20
173.252844
 30
0.0
 10
107.616207
 20
175.565082
 30
0.0
  0
SPLINE
  5
1a6
100
AcDbEntity
  8
decoupe
 62
7
100
AcDbSpline
 70
8
 71
3
 72
8
 73
4
 74
0
 40
0
 40
0
 40
0
 40
0
 40
1
 40
1
 40
1
 40
1
 10
107.616207
 20
175.565082
 30
0.0
 10
105.932828
 20
181.580437
 30
0.0
 10
99.940288
 20
186.749558
 30
0.0
 10
94.394889
 20
186.969697
 30
0.0
  0
LWPOLYLINE
  5
1a7
100
AcDbEntity
  8
decoupe
 62
7
100
AcDbPolyline
 90
2
 70
1
 10
90.111371
 20
157.889454
 30
0.0
 10
90.111371
 20
157.889454
 30
0.0
  0
SPLINE
  5
1a8
100
AcDbEntity
  8
decoupe
 62
7
100
AcDbSpline
 70
8
 71
3
 72
8
 73
4
 74
0
 40
0
 40
0
 40
0
 40
0
 40
1
 40
1
 40
1
 40
1
 10
94.467324
 20
180.988126
 30
0.0
 10
101.261175
 20
178.636199
 30
0.0
 10
102.934197
 20
168.046900
 30
0.0
 10
97.340939
 20
162.799723
 30
0.0
  0
SPLINE
  5
1a9
100
AcDbEntity
  8
decoupe
 62
7
100
AcDbSpline
 70
8
 71
3
 72
8
 73
4
 74
0
 40
0
 40
0
 40
0
 40
0
 40
1
 40
1
 40
1
 40
1
 10
97.340939
 20
162.799723
 30
0.0
 10
96.475719
 20
161.988040
 30
0.0
 10
95.495051
 20
161.370371
 30
0.0
 10
94.742833
 20
161.163325
 30
0.0
  0
SPLINE
  5
1aa
100
AcDbEntity
  8
decoupe
 62
7
100
AcDbSpline
 70
8
 71
3
 72
8
 73
4
 74
0
 40
0
 40
0
 40
0
 40
0
 40
1
 40
1
 40
1
 40
1
 10
94.742833
 20
161.163325
 30
0.0
 10
94.078270
 20
160.980405
 30
0.0
 10
93.373219
 20
160.713003
 30
0.0
 10
93.176056
 20
160.569097
 30
0.0
  0
SPLINE
  5
1ab
100
AcDbEntity
  8
decoupe
 62
7
100
AcDbSpline
 70
8
 71
3
 72
8
 73
4
 74
0
 40
0
 40
0
 40
0
 40
0
 40
1
 40
1
 40
1
 40
1
 10
93.176056
 20
160.569097
 30
0.0
 10
92.793002
 20
160.289522
 30
0.0
 10
92.647767
 20
155.383227
 30
0.0
 10
93.012156
 20
155.032309
 30
0.0
  0
SPLINE
  5
1ac
100
AcDbEntity
  8
decoupe
 62
7
100
AcDbSpline
 70
8
 71
3
 72
8
 73
4
 74
0
 40
0
 40
0
 40
0
 40
0
 40
1
 40
1
 40
1
 40
1
 10
93.012156
 20
155.032309
 30
0.0
 10
93.243265
 20
154.809749
 30
0.0
 10
94.659467
 20
155.015856
 30
0.0
 10
96.832561
 20
155.588321
 30
0.0
  0
LWPOLYLINE
  5
1ad
100
AcDbEntity
  8
decoupe
 62
7
100
AcDbPolyline
 90
5
 70
1
 10
94.394889
 20
186.969697
 30
0.0
 10
92.960966
 20
187.026621
 30
0.0
 10
92.960966
 20
184.268113
 30
0.0
 10
92.960966
 20
181.509602
 30
0.0
 10
94.467324
 20
180.988126
 30
0.0
  0
LWPOLYLINE
  5
1ae
100
AcDbEntity
  8
decoupe
 62
7
100
AcDbPolyline
 90
2
 70
1
 10
96.832561
 20
155.588321
 30
0.0
 10
96.832564
 20
155.588321
 30
0.0
  0
SPLINE
  5
1af
100
AcDbEntity
  8
decoupe
 62
7
100
AcDbSpline
 70
8
 71
3
 72
8
 73
4
 74
0
 40
0
 40
0
 40
0
 40
0
 40
1
 40
1
 40
1
 40
1
 10
110.667176
 20
171.422357
 30
0.0
 10
110.626234
 20
162.688109
 30
0.0
 10
110.655944
 20
155.382827
 30
0.0
 10
110.733174
 20
155.188387
 30
0.0
  0
SPLINE
  5
1b0
100
AcDbEntity
  8
decoupe
 62
7
100
AcDbSpline
 70
8
 71
3
 72
8
 73
4
 74
0
 40
0
 40
0
 40
0
 40
0
 40
1
 40
1
 40
1
 40
1
 10
110.733174
 20
155.188387
 30
0.0
 10
110.839433
 20
154.920919
 30
0.0
 10
111.765035
 20
154.853694
 30
0.0
 10
114.535822
 20
154.912207
 30
0.0
  0
LWPOLYLINE
  5
1b1
100
AcDbEntity
  8
decoupe
 62
7
100
AcDbPolyline
 90
5
 70
1
 10
118.198022
 20
171.146174
 30
0.0
 10
118.198022
 20
187.302803
 30
0.0
 10
114.469822
 20
187.302803
 30
0.0
 10
110.741621
 20
187.302803
 30
0.0
 10
110.667176
 20
171.422357
 30
0.0
  0
LWPOLYLINE
  5
1b2
100
AcDbEntity
  8
decoupe
 62
7
100
AcDbPolyline
 90
4
 70
1
 10
114.535822
 20
154.912207
 30
0.0
 10
118.198022
 20
154.989544
 30
0.0
 10
118.198022
 20
171.146174
 30
0.0
 10
118.198022
 20
171.146174
 30
0.0
  0
SPLINE
  5
1b3
100
AcDbEntity
  8
decoupe
 62
7
100
AcDbSpline
 70
8
 71
3
 72
8
 73
4
 74
0
 40
0
 40
0
 40
0
 40
0
 40
1
 40
1
 40
1
 40
1
 10
140.474536
 20
171.422357
 30
0.0
 10
140.433592
 20
162.688109
 30
0.0
 10
140.463304
 20
155.382827
 30
0.0
 10
140.540534
 20
155.188387
 30
0.0
  0
SPLINE
  5
1b4
100
AcDbEntity
  8
decoupe
 62
7
100
AcDbSpline
 70
8
 71
3
 72
8
 73
4
 74
0
 40
0
 40
0
 40
0
 40
0
 40
1
 40
1
 40
1
 40
1
 10
140.540534
 20
155.188387
 30
0.0
 10
140.646793
 20
154.920919
 30
0.0
 10
141.572395
 20
154.853694
 30
0.0
 10
144.343182
 20
154.912207
 30
0.0
  0
LWPOLYLINE
  5
1b5
100
AcDbEntity
  8
decoupe
 62
7
100
AcDbPolyline
 90
5
 70
1
 10
148.005382
 20
171.146174
 30
0.0
 10
148.005382
 20
187.302803
 30
0.0
 10
144.277182
 20
187.302803
 30
0.0
 10
140.548981
 20
187.302803
 30
0.0
 10
140.474536
 20
171.422357
 30
0.0
  0
SPLINE
  5
1b6
100
AcDbEntity
  8
decoupe
 62
7
100
AcDbSpline
 70
8
 71
3
 72
8
 73
4
 74
0
 40
0
 40
0
 40
0
 40
0
 40
1
 40
1
 40
1
 40
1
 10
169.216965
 20
155.139735
 30
0.0
 10
169.318717
 20
155.298290
 30
0.0
 10
169.263534
 20
155.588654
 30
0.0
 10
169.094339
 20
155.784988
 30
0.0
  0
SPLINE
  5
1b7
100
AcDbEntity
  8
decoupe
 62
7
100
AcDbSpline
 70
8
 71
3
 72
8
 73
4
 74
0
 40
0
 40
0
 40
0
 40
0
 40
1
 40
1
 40
1
 40
1
 10
169.094339
 20
155.784988
 30
0.0
 10
168.490214
 20
156.485997
 30
0.0
 10
167.874733
 20
158.636335
 30
0.0
 10
167.222737
 20
162.323868
 30
0.0
  0
SPLINE
  5
1b8
100
AcDbEntity
  8
decoupe
 62
7
100
AcDbSpline
 70
8
 71
3
 72
8
 73
4
 74
0
 40
0
 40
0
 40
0
 40
0
 40
1
 40
1
 40
1
 40
1
 10
167.222737
 20
162.323868
 30
0.0
 10
166.625352
 20
165.702562
 30
0.0
 10
165.947796
 20
167.745644
 30
0.0
 10
165.026351
 20
168.946810
 30
0.0
  0
SPLINE
  5
1b9
100
AcDbEntity
  8
decoupe
 62
7
100
AcDbSpline
 70
8
 71
3
 72
8
 73
4
 74
0
 40
0
 40
0
 40
0
 40
0
 40
1
 40
1
 40
1
 40
1
 10
165.026351
 20
168.946810
 30
0.0
 10
164.768293
 20
169.283205
 30
0.0
 10
164.886826
 20
169.636607
 30
0.0
 10
165.598173
 20
170.651653
 30
0.0
  0
SPLINE
  5
1ba
100
AcDbEntity
  8
decoupe
 62
7
100
AcDbSpline
 70
8
 71
3
 72
8
 73
4
 74
0
 40
0
 40
0
 40
0
 40
0
 40
1
 40
1
 40
1
 40
1
 10
165.598173
 20
170.651653
 30
0.0
 10
167.430399
 20
173.266123
 30
0.0
 10
168.087181
 20
175.990956
 30
0.0
 10
167.602448
 20
178.966927
 30
0.0
  0
SPLINE
  5
1bb
100
AcDbEntity
  8
decoupe
 62
7
100
AcDbSpline
 70
8
 71
3
 72
8
 73
4
 74
0
 40
0
 40
0
 40
0
 40
0
 40
1
 40
1
 40
1
 40
1
 10
167.602448
 20
178.966927
 30
0.0
 10
166.628462
 20
184.946620
 30
0.0
 10
162.088717
 20
187.645238
 30
0.0
 10
153.436043
 20
187.388046
 30
0.0
  0
LWPOLYLINE
  5
1bc
100
AcDbEntity
  8
decoupe
 62
7
100
AcDbPolyline
 90
4
 70
1
 10
144.343182
 20
154.912207
 30
0.0
 10
148.005382
 20
154.989544
 30
0.0
 10
148.005382
 20
171.146174
 30
0.0
 10
148.005382
 20
171.146174
 30
0.0
  0
SPLINE
  5
1bd
100
AcDbEntity
  8
decoupe
 62
7
100
AcDbSpline
 70
8
 71
3
 72
8
 73
4
 74
0
 40
0
 40
0
 40
0
 40
0
 40
1
 40
1
 40
1
 40
1
 10
153.928092
 20
181.633021
 30
0.0
 10
157.821768
 20
181.463654
 30
0.0
 10
158.467171
 20
181.171455
 30
0.0
 10
159.553588
 20
179.086141
 30
0.0
  0
SPLINE
  5
1be
100
AcDbEntity
  8
decoupe
 62
7
100
AcDbSpline
 70
8
 71
3
 72
8
 73
4
 74
0
 40
0
 40
0
 40
0
 40
0
 40
1
 40
1
 40
1
 40
1
 10
159.553588
 20
179.086141
 30
0.0
 10
160.166375
 20
177.909931
 30
0.0
 10
160.194871
 20
177.675834
 30
0.0
 10
159.894747
 20
176.283595
 30
0.0
  0
SPLINE
  5
1bf
100
AcDbEntity
  8
decoupe
 62
7
100
AcDbSpline
 70
8
 71
3
 72
8
 73
4
 74
0
 40
0
 40
0
 40
0
 40
0
 40
1
 40
1
 40
1
 40
1
 10
159.894747
 20
176.283595
 30
0.0
 10
159.642502
 20
175.113462
 30
0.0
 10
159.339444
 20
174.571827
 30
0.0
 10
158.575587
 20
173.925944
 30
0.0
  0
SPLINE
  5
1c0
100
AcDbEntity
  8
decoupe
 62
7
100
AcDbSpline
 70
8
 71
3
 72
8
 73
4
 74
0
 40
0
 40
0
 40
0
 40
0
 40
1
 40
1
 40
1
 40
1
 10
158.575587
 20
173.925944
 30
0.0
 10
157.358004
 20
172.896420
 30
0.0
 10
157.026243
 20
172.819461
 30
0.0
 10
153.436043
 20
172.733688
 30
0.0
  0
LWPOLYLINE
  5
1c1
100
AcDbEntity
  8
decoupe
 62
7
100
AcDbPolyline
 90
5
 70
1
 10
153.436043
 20
187.388046
 30
0.0
 10
150.568194
 20
187.302803
 30
0.0
 10
150.568194
 20
184.540985
 30
0.0
 10
150.568194
 20
181.779170
 30
0.0
 10
153.928092
 20
181.633021
 30
0.0
  0
SPLINE
  5
1c2
100
AcDbEntity
  8
decoupe
 62
7
100
AcDbSpline
 70
8
 71
3
 72
8
 73
4
 74
0
 40
0
 40
0
 40
0
 40
0
 40
1
 40
1
 40
1
 40
1
 10
153.777112
 20
166.700971
 30
0.0
 10
158.367352
 20
166.465823
 30
0.0
 10
158.930168
 20
165.999948
 30
0.0
 10
159.584249
 20
161.894088
 30
0.0
  0
SPLINE
  5
1c3
100
AcDbEntity
  8
decoupe
 62
7
100
AcDbSpline
 70
8
 71
3
 72
8
 73
4
 74
0
 40
0
 40
0
 40
0
 40
0
 40
1
 40
1
 40
1
 40
1
 10
159.584249
 20
161.894088
 30
0.0
 10
160.111776
 20
158.582642
 30
0.0
 10
160.757331
 20
156.296719
 30
0.0
 10
161.380384
 20
155.533917
 30
0.0
  0
SPLINE
  5
1c4
100
AcDbEntity
  8
decoupe
 62
7
100
AcDbSpline
 70
8
 71
3
 72
8
 73
4
 74
0
 40
0
 40
0
 40
0
 40
0
 40
1
 40
1
 40
1
 40
1
 10
161.380384
 20
155.533917
 30
0.0
 10
161.919562
 20
154.873808
 30
0.0
 10
162.054007
 20
154.851456
 30
0.0
 10
165.484889
 20
154.851456
 30
0.0
  0
SPLINE
  5
1c5
100
AcDbEntity
  8
decoupe
 62
7
100
AcDbSpline
 70
8
 71
3
 72
8
 73
4
 74
0
 40
0
 40
0
 40
0
 40
0
 40
1
 40
1
 40
1
 40
1
 10
165.484889
 20
154.851456
 30
0.0
 10
167.639489
 20
154.851456
 30
0.0
 10
169.104584
 20
154.964627
 30
0.0
 10
169.216965
 20
155.139735
 30
0.0
  0
LWPOLYLINE
  5
1c6
100
AcDbEntity
  8
decoupe
 62
7
100
AcDbPolyline
 90
5
 70
1
 10
153.436043
 20
172.733688
 30
0.0
 10
150.568194
 20
172.665173
 30
0.0
 10
150.568194
 20
169.765266
 30
0.0
 10
150.568194
 20
166.865359
 30
0.0
 10
153.777112
 20
166.700971
 30
0.0
  0
SPLINE
  5
1c7
100
AcDbEntity
  8
decoupe
 62
7
100
AcDbSpline
 70
8
 71
3
 72
8
 73
4
 74
0
 40
0
 40
0
 40
0
 40
0
 40
1
 40
1
 40
1
 40
1
 10
179.533451
 20
187.302803
 30
0.0
 10
177.047982
 20
187.302803
 30
0.0
 10
174.562516
 20
187.302803
 30
0.0
 10
172.077047
 20
187.302803
 30
0.0
  0
LWPOLYLINE
  5
1c8
100
AcDbEntity
  8
decoupe
 62
7
100
AcDbPolyline
 90
2
 70
1
 10
169.216965
 20
155.139735
 30
0.0
 10
169.216965
 20
155.139735
 30
0.0
  0
SPLINE
  5
1c9
100
AcDbEntity
  8
decoupe
 62
7
100
AcDbSpline
 70
8
 71
3
 72
8
 73
4
 74
0
 40
0
 40
0
 40
0
 40
0
 40
1
 40
1
 40
1
 40
1
 10
172.147001
 20
154.992389
 30
0.0
 10
174.596882
 20
154.918032
 30
0.0
 10
177.123321
 20
154.937821
 30
0.0
 10
179.572652
 20
154.989539
 30
0.0
  0
SPLINE
  5
1ca
100
AcDbEntity
  8
decoupe
 62
7
100
AcDbSpline
 70
8
 71
3
 72
8
 73
4
 74
0
 40
0
 40
0
 40
0
 40
0
 40
1
 40
1
 40
1
 40
1
 10
179.572652
 20
154.989539
 30
0.0
 10
179.572652
 20
165.760626
 30
0.0
 10
179.533451
 20
176.531710
 30
0.0
 10
179.533451
 20
187.302798
 30
0.0
  0
LWPOLYLINE
  5
1cb
100
AcDbEntity
  8
decoupe
 62
7
100
AcDbPolyline
 90
2
 70
1
 10
172.077047
 20
187.302803
 30
0.0
 10
172.147001
 20
154.992389
 30
0.0
  0
SPLINE
  5
1cc
100
AcDbEntity
  8
decoupe
 62
7
100
AcDbSpline
 70
8
 71
3
 72
8
 73
4
 74
0
 40
0
 40
0
 40
0
 40
0
 40
1
 40
1
 40
1
 40
1
 10
184.372140
 20
187.302716
 30
0.0
 10
184.265426
 20
176.493215
 30
0.0
 10
184.320663
 20
165.683983
 30
0.0
 10
184.363871
 20
154.874403
 30
0.0
  0
LWPOLYLINE
  5
1cd
100
AcDbEntity
  8
decoupe
 62
7
100
AcDbPolyline
 90
2
 70
1
 10
179.533451
 20
187.302798
 30
0.0
 10
179.533451
 20
187.302803
 30
0.0
  0
SPLINE
  5
1ce
100
AcDbEntity
  8
decoupe
 62
7
100
AcDbSpline
 70
8
 71
3
 72
8
 73
4
 74
0
 40
0
 40
0
 40
0
 40
0
 40
1
 40
1
 40
1
 40
1
 10
208.749084
 20
154.989375
 30
0.0
 10
208.749084
 20
156.922671
 30
0.0
 10
208.749084
 20
158.855966
 30
0.0
 10
208.749084
 20
160.789262
 30
0.0
  0
SPLINE
  5
1cf
100
AcDbEntity
  8
decoupe
 62
7
100
AcDbSpline
 70
8
 71
3
 72
8
 73
4
 74
0
 40
0
 40
0
 40
0
 40
0
 40
1
 40
1
 40
1
 40
1
 10
208.749084
 20
160.789262
 30
0.0
 10
203.147684
 20
160.838840
 30
0.0
 10
197.546502
 20
160.908001
 30
0.0
 10
191.945285
 20
160.974470
 30
0.0
  0
LWPOLYLINE
  5
1d0
100
AcDbEntity
  8
decoupe
 62
7
100
AcDbPolyline
 90
2
 70
1
 10
184.363871
 20
154.874403
 30
0.0
 10
208.749084
 20
154.989375
 30
0.0
  0
SPLINE
  5
1d1
100
AcDbEntity
  8
decoupe
 62
7
100
AcDbSpline
 70
8
 71
3
 72
8
 73
4
 74
0
 40
0
 40
0
 40
0
 40
0
 40
1
 40
1
 40
1
 40
1
 10
191.900088
 20
169.067412
 30
0.0
 10
197.134059
 20
169.081862
 30
0.0
 10
202.368026
 20
169.078024
 30
0.0
 10
207.602006
 20
169.074581
 30
0.0
  0
SPLINE
  5
1d2
100
AcDbEntity
  8
decoupe
 62
7
100
AcDbSpline
 70
8
 71
3
 72
8
 73
4
 74
0
 40
0
 40
0
 40
0
 40
0
 40
1
 40
1
 40
1
 40
1
 10
207.602006
 20
169.074581
 30
0.0
 10
207.602006
 20
171.007877
 30
0.0
 10
207.602006
 20
172.941172
 30
0.0
 10
207.602006
 20
174.874468
 30
0.0
  0
SPLINE
  5
1d3
100
AcDbEntity
  8
decoupe
 62
7
100
AcDbSpline
 70
8
 71
3
 72
8
 73
4
 74
0
 40
0
 40
0
 40
0
 40
0
 40
1
 40
1
 40
1
 40
1
 10
207.602006
 20
174.874468
 30
0.0
 10
202.370346
 20
174.952672
 30
0.0
 10
197.138245
 20
174.962400
 30
0.0
 10
191.906150
 20
174.981955
 30
0.0
  0
LWPOLYLINE
  5
1d4
100
AcDbEntity
  8
decoupe
 62
7
100
AcDbPolyline
 90
2
 70
1
 10
191.945285
 20
160.974470
 30
0.0
 10
191.900088
 20
169.067412
 30
0.0
  0
SPLINE
  5
1d5
100
AcDbEntity
  8
decoupe
 62
7
100
AcDbSpline
 70
8
 71
3
 72
8
 73
4
 74
0
 40
0
 40
0
 40
0
 40
0
 40
1
 40
1
 40
1
 40
1
 10
191.910552
 20
181.414087
 30
0.0
 10
197.523712
 20
181.397747
 30
0.0
 10
203.136297
 20
181.449523
 30
0.0
 10
208.749076
 20
181.502835
 30
0.0
  0
SPLINE
  5
1d6
100
AcDbEntity
  8
decoupe
 62
7
100
AcDbSpline
 70
8
 71
3
 72
8
 73
4
 74
0
 40
0
 40
0
 40
0
 40
0
 40
1
 40
1
 40
1
 40
1
 10
208.749076
 20
181.502835
 30
0.0
 10
208.749076
 20
183.448624
 30
0.0
 10
208.749076
 20
185.394417
 30
0.0
 10
208.749076
 20
187.340206
 30
0.0
  0
SPLINE
  5
1d7
100
AcDbEntity
  8
decoupe
 62
7
100
AcDbSpline
 70
8
 71
3
 72
8
 73
4
 74
0
 40
0
 40
0
 40
0
 40
0
 40
1
 40
1
 40
1
 40
1
 10
208.749076
 20
187.340206
 30
0.0
 10
200.623435
 20
187.316217
 30
0.0
 10
192.497809
 20
187.302716
 30
0.0
 10
184.372140
 20
187.302716
 30
0.0
  0
LWPOLYLINE
  5
1d8
100
AcDbEntity
  8
decoupe
 62
7
100
AcDbPolyline
 90
2
 70
1
 10
191.906150
 20
174.981955
 30
0.0
 10
191.910552
 20
181.414087
 30
0.0
  0
LWPOLYLINE
  5
1d9
100
AcDbEntity
  8
decoupe
 62
7
100
AcDbPolyline
 90
2
 70
1
 10
184.372140
 20
187.302716
 30
0.0
 10
184.372140
 20
187.302716
 30
0.0
  0
SPLINE
  5
1da
100
AcDbEntity
  8
decoupe
 62
7
100
AcDbSpline
 70
8
 71
3
 72
8
 73
4
 74
0
 40
0
 40
0
 40
0
 40
0
 40
1
 40
1
 40
1
 40
1
 10
212.376080
 20
184.287569
 30
0.0
 10
212.315566
 20
182.282400
 30
0.0
 10
212.392788
 20
181.488385
 30
0.0
 10
212.663264
 20
181.323133
 30
0.0
  0
SPLINE
  5
1db
100
AcDbEntity
  8
decoupe
 62
7
100
AcDbSpline
 70
8
 71
3
 72
8
 73
4
 74
0
 40
0
 40
0
 40
0
 40
0
 40
1
 40
1
 40
1
 40
1
 10
212.663264
 20
181.323133
 30
0.0
 10
212.825745
 20
181.223855
 30
0.0
 10
216.449631
 20
181.140402
 30
0.0
 10
221.232456
 20
181.108711
 30
0.0
  0
LWPOLYLINE
  5
1dc
100
AcDbEntity
  8
decoupe
 62
7
100
AcDbPolyline
 90
6
 70
1
 10
237.436296
 20
181.203191
 30
0.0
 10
237.492204
 20
184.444115
 30
0.0
 10
237.408971
 20
187.026559
 30
0.0
 10
224.933868
 20
187.026559
 30
0.0
 10
212.458763
 20
187.026559
 30
0.0
 10
212.376080
 20
184.287569
 30
0.0
  0
SPLINE
  5
1dd
100
AcDbEntity
  8
decoupe
 62
7
100
AcDbSpline
 70
8
 71
3
 72
8
 73
4
 74
0
 40
0
 40
0
 40
0
 40
0
 40
1
 40
1
 40
1
 40
1
 10
221.274349
 20
167.693786
 30
0.0
 10
221.295064
 20
161.010095
 30
0.0
 10
221.262976
 20
155.382804
 30
0.0
 10
221.340494
 20
155.188364
 30
0.0
  0
SPLINE
  5
1de
100
AcDbEntity
  8
decoupe
 62
7
100
AcDbSpline
 70
8
 71
3
 72
8
 73
4
 74
0
 40
0
 40
0
 40
0
 40
0
 40
1
 40
1
 40
1
 40
1
 10
221.340494
 20
155.188364
 30
0.0
 10
221.447004
 20
154.920911
 30
0.0
 10
222.372702
 20
154.853694
 30
0.0
 10
225.143328
 20
154.912204
 30
0.0
  0
LWPOLYLINE
  5
1df
100
AcDbEntity
  8
decoupe
 62
7
100
AcDbPolyline
 90
2
 70
1
 10
221.232456
 20
181.108711
 30
0.0
 10
221.274349
 20
167.693786
 30
0.0
  0
SPLINE
  5
1e0
100
AcDbEntity
  8
decoupe
 62
7
100
AcDbSpline
 70
8
 71
3
 72
8
 73
4
 74
0
 40
0
 40
0
 40
0
 40
0
 40
1
 40
1
 40
1
 40
1
 10
31.195366
 20
166.184182
 30
0.0
 10
35.167254
 20
166.783535
 30
0.0
 10
38.398930
 20
168.751555
 30
0.0
 10
39.799824
 20
171.424109
 30
0.0
  0
SPLINE
  5
1e1
100
AcDbEntity
  8
decoupe
 62
7
100
AcDbSpline
 70
8
 71
3
 72
8
 73
4
 74
0
 40
0
 40
0
 40
0
 40
0
 40
1
 40
1
 40
1
 40
1
 10
39.799824
 20
171.424109
 30
0.0
 10
42.131635
 20
175.872612
 30
0.0
 10
41.098670
 20
182.236841
 30
0.0
 10
37.630961
 20
184.786739
 30
0.0
  0
SPLINE
  5
1e2
100
AcDbEntity
  8
decoupe
 62
7
100
AcDbSpline
 70
8
 71
3
 72
8
 73
4
 74
0
 40
0
 40
0
 40
0
 40
0
 40
1
 40
1
 40
1
 40
1
 10
37.630961
 20
184.786739
 30
0.0
 10
34.806072
 20
186.863954
 30
0.0
 10
31.902135
 20
187.548732
 30
0.0
 10
26.606811
 20
187.386350
 30
0.0
  0
LWPOLYLINE
  5
1e3
100
AcDbEntity
  8
decoupe
 62
7
100
AcDbPolyline
 90
5
 70
1
 10
225.143328
 20
154.912204
 30
0.0
 10
228.805605
 20
154.989375
 30
0.0
 10
228.805605
 20
167.417626
 30
0.0
 10
228.767019
 20
181.089419
 30
0.0
 10
237.436296
 20
181.203191
 30
0.0
  0
SPLINE
  5
1e4
100
AcDbEntity
  8
decoupe
 62
7
100
AcDbSpline
 70
8
 71
3
 72
8
 73
4
 74
0
 40
0
 40
0
 40
0
 40
0
 40
1
 40
1
 40
1
 40
1
 10
27.242254
 20
181.356841
 30
0.0
 10
31.104507
 20
181.188840
 30
0.0
 10
31.740108
 20
180.906539
 30
0.0
 10
32.886196
 20
178.850093
 30
0.0
  0
SPLINE
  5
1e5
100
AcDbEntity
  8
decoupe
 62
7
100
AcDbSpline
 70
8
 71
3
 72
8
 73
4
 74
0
 40
0
 40
0
 40
0
 40
0
 40
1
 40
1
 40
1
 40
1
 10
32.886196
 20
178.850093
 30
0.0
 10
33.447375
 20
177.843166
 30
0.0
 10
33.537838
 20
177.389615
 30
0.0
 10
33.379847
 20
176.375035
 30
0.0
  0
SPLINE
  5
1e6
100
AcDbEntity
  8
decoupe
 62
7
100
AcDbSpline
 70
8
 71
3
 72
8
 73
4
 74
0
 40
0
 40
0
 40
0
 40
0
 40
1
 40
1
 40
1
 40
1
 10
33.379847
 20
176.375035
 30
0.0
 10
33.273461
 20
175.691812
 30
0.0
 10
32.938170
 20
174.739701
 30
0.0
 10
32.634758
 20
174.259229
 30
0.0
  0
SPLINE
  5
1e7
100
AcDbEntity
  8
decoupe
 62
7
100
AcDbSpline
 70
8
 71
3
 72
8
 73
4
 74
0
 40
0
 40
0
 40
0
 40
0
 40
1
 40
1
 40
1
 40
1
 10
32.634758
 20
174.259229
 30
0.0
 10
31.647740
 20
172.696212
 30
0.0
 10
30.854780
 20
172.403446
 30
0.0
 10
27.195213
 20
172.250902
 30
0.0
  0
LWPOLYLINE
  5
1e8
100
AcDbEntity
  8
decoupe
 62
7
100
AcDbPolyline
 90
5
 70
1
 10
26.606811
 20
187.386350
 30
0.0
 10
23.882356
 20
187.302803
 30
0.0
 10
23.882356
 20
184.402894
 30
0.0
 10
23.882356
 20
181.502987
 30
0.0
 10
27.242254
 20
181.356841
 30
0.0
  0
SPLINE
  5
1e9
100
AcDbEntity
  8
decoupe
 62
7
100
AcDbSpline
 70
8
 71
3
 72
8
 73
4
 74
0
 40
0
 40
0
 40
0
 40
0
 40
1
 40
1
 40
1
 40
1
 10
23.799656
 20
169.370652
 30
0.0
 10
23.754172
 20
167.862465
 30
0.0
 10
23.782392
 20
166.464296
 30
0.0
 10
23.862353
 20
166.263608
 30
0.0
  0
SPLINE
  5
1ea
100
AcDbEntity
  8
decoupe
 62
7
100
AcDbSpline
 70
8
 71
3
 72
8
 73
4
 74
0
 40
0
 40
0
 40
0
 40
0
 40
1
 40
1
 40
1
 40
1
 10
23.862353
 20
166.263608
 30
0.0
 10
24.042284
 20
165.812047
 30
0.0
 10
28.415336
 20
165.764682
 30
0.0
 10
31.195366
 20
166.184182
 30
0.0
  0
LWPOLYLINE
  5
1eb
100
AcDbEntity
  8
decoupe
 62
7
100
AcDbPolyline
 90
3
 70
1
 10
27.195213
 20
172.250902
 30
0.0
 10
23.882356
 20
172.112810
 30
0.0
 10
23.799656
 20
169.370652
 30
0.0
  0
SPLINE
  5
1ec
100
AcDbEntity
  8
decoupe
 62
7
100
AcDbSpline
 70
8
 71
3
 72
8
 73
4
 74
0
 40
0
 40
0
 40
0
 40
0
 40
1
 40
1
 40
1
 40
1
 10
128.737086
 20
166.294438
 30
0.0
 10
131.446484
 20
166.793664
 30
0.0
 10
133.362553
 20
167.724754
 30
0.0
 10
135.170576
 20
169.420715
 30
0.0
  0
SPLINE
  5
1ed
100
AcDbEntity
  8
decoupe
 62
7
100
AcDbSpline
 70
8
 71
3
 72
8
 73
4
 74
0
 40
0
 40
0
 40
0
 40
0
 40
1
 40
1
 40
1
 40
1
 10
135.170576
 20
169.420715
 30
0.0
 10
137.171365
 20
171.297490
 30
0.0
 10
137.900746
 20
173.224512
 30
0.0
 10
137.914363
 20
176.669807
 30
0.0
  0
SPLINE
  5
1ee
100
AcDbEntity
  8
decoupe
 62
7
100
AcDbSpline
 70
8
 71
3
 72
8
 73
4
 74
0
 40
0
 40
0
 40
0
 40
0
 40
1
 40
1
 40
1
 40
1
 10
137.914363
 20
176.669807
 30
0.0
 10
137.931494
 20
180.999237
 30
0.0
 10
136.662315
 20
183.531798
 30
0.0
 10
133.484233
 20
185.509947
 30
0.0
  0
SPLINE
  5
1ef
100
AcDbEntity
  8
decoupe
 62
7
100
AcDbSpline
 70
8
 71
3
 72
8
 73
4
 74
0
 40
0
 40
0
 40
0
 40
0
 40
1
 40
1
 40
1
 40
1
 10
133.484233
 20
185.509947
 30
0.0
 10
131.212330
 20
186.924058
 30
0.0
 10
129.530311
 20
187.267198
 30
0.0
 10
124.775821
 20
187.286502
 30
0.0
  0
LWPOLYLINE
  5
1f0
100
AcDbEntity
  8
decoupe
 62
7
100
AcDbPolyline
 90
2
 70
1
 10
31.195366
 20
166.184182
 30
0.0
 10
31.195366
 20
166.184182
 30
0.0
  0
SPLINE
  5
1f1
100
AcDbEntity
  8
decoupe
 62
7
100
AcDbSpline
 70
8
 71
3
 72
8
 73
4
 74
0
 40
0
 40
0
 40
0
 40
0
 40
1
 40
1
 40
1
 40
1
 10
124.058861
 20
181.359017
 30
0.0
 10
128.016934
 20
181.186252
 30
0.0
 10
128.882103
 20
180.832523
 30
0.0
 10
129.796695
 20
179.013070
 30
0.0
  0
SPLINE
  5
1f2
100
AcDbEntity
  8
decoupe
 62
7
100
AcDbSpline
 70
8
 71
3
 72
8
 73
4
 74
0
 40
0
 40
0
 40
0
 40
0
 40
1
 40
1
 40
1
 40
1
 10
129.796695
 20
179.013070
 30
0.0
 10
130.925104
 20
176.768272
 30
0.0
 10
130.091434
 20
173.897956
 30
0.0
 10
127.971217
 20
172.727976
 30
0.0
  0
SPLINE
  5
1f3
100
AcDbEntity
  8
decoupe
 62
7
100
AcDbSpline
 70
8
 71
3
 72
8
 73
4
 74
0
 40
0
 40
0
 40
0
 40
0
 40
1
 40
1
 40
1
 40
1
 10
127.971217
 20
172.727976
 30
0.0
 10
127.633332
 20
172.541531
 30
0.0
 10
125.872773
 20
172.326839
 30
0.0
 10
124.058861
 20
172.250890
 30
0.0
  0
LWPOLYLINE
  5
1f4
100
AcDbEntity
  8
decoupe
 62
7
100
AcDbPolyline
 90
5
 70
1
 10
124.775821
 20
187.286502
 30
0.0
 10
120.760837
 20
187.302787
 30
0.0
 10
120.760837
 20
184.402877
 30
0.0
 10
120.760837
 20
181.502970
 30
0.0
 10
124.058861
 20
181.359017
 30
0.0
  0
SPLINE
  5
1f5
100
AcDbEntity
  8
decoupe
 62
7
100
AcDbSpline
 70
8
 71
3
 72
8
 73
4
 74
0
 40
0
 40
0
 40
0
 40
0
 40
1
 40
1
 40
1
 40
1
 10
120.678135
 20
169.370641
 30
0.0
 10
120.632652
 20
167.862453
 30
0.0
 10
120.660863
 20
166.464285
 30
0.0
 10
120.740833
 20
166.263597
 30
0.0
  0
SPLINE
  5
1f6
100
AcDbEntity
  8
decoupe
 62
7
100
AcDbSpline
 70
8
 71
3
 72
8
 73
4
 74
0
 40
0
 40
0
 40
0
 40
0
 40
1
 40
1
 40
1
 40
1
 10
120.740833
 20
166.263597
 30
0.0
 10
120.942320
 20
165.757945
 30
0.0
 10
125.929864
 20
165.777176
 30
0.0
 10
128.737086
 20
166.294427
 30
0.0
  0
LWPOLYLINE
  5
1f7
100
AcDbEntity
  8
decoupe
 62
7
100
AcDbPolyline
 90
3
 70
1
 10
124.058861
 20
172.250890
 30
0.0
 10
120.760837
 20
172.112799
 30
0.0
 10
120.678135
 20
169.370641
 30
0.0
  0
SPLINE
  5
1f8
100
AcDbEntity
  8
decoupe
 62
7
100
AcDbSpline
 70
8
 71
3
 72
8
 73
4
 74
0
 40
0
 40
0
 40
0
 40
0
 40
1
 40
1
 40
1
 40
1
 10
240.669925
 20
187.306179
 30
0.0
 10
240.563211
 20
176.496678
 30
0.0
 10
240.618447
 20
165.687446
 30
0.0
 10
240.661656
 20
154.877866
 30
0.0
  0
LWPOLYLINE
  5
1f9
100
AcDbEntity
  8
decoupe
 62
7
100
AcDbPolyline
 90
2
 70
1
 10
128.737086
 20
166.294427
 30
0.0
 10
128.737086
 20
166.294438
 30
0.0
  0
SPLINE
  5
1fa
100
AcDbEntity
  8
decoupe
 62
7
100
AcDbSpline
 70
8
 71
3
 72
8
 73
4
 74
0
 40
0
 40
0
 40
0
 40
0
 40
1
 40
1
 40
1
 40
1
 10
265.046869
 20
154.992838
 30
0.0
 10
265.046869
 20
156.926133
 30
0.0
 10
265.046869
 20
158.859429
 30
0.0
 10
265.046869
 20
160.792725
 30
0.0
  0
SPLINE
  5
1fb
100
AcDbEntity
  8
decoupe
 62
7
100
AcDbSpline
 70
8
 71
3
 72
8
 73
4
 74
0
 40
0
 40
0
 40
0
 40
0
 40
1
 40
1
 40
1
 40
1
 10
265.046869
 20
160.792725
 30
0.0
 10
259.445469
 20
160.842303
 30
0.0
 10
253.844287
 20
160.911464
 30
0.0
 10
248.243070
 20
160.977933
 30
0.0
  0
LWPOLYLINE
  5
1fc
100
AcDbEntity
  8
decoupe
 62
7
100
AcDbPolyline
 90
2
 70
1
 10
240.661656
 20
154.877866
 30
0.0
 10
265.046869
 20
154.992838
 30
0.0
  0
SPLINE
  5
1fd
100
AcDbEntity
  8
decoupe
 62
7
100
AcDbSpline
 70
8
 71
3
 72
8
 73
4
 74
0
 40
0
 40
0
 40
0
 40
0
 40
1
 40
1
 40
1
 40
1
 10
248.197872
 20
169.070875
 30
0.0
 10
253.431844
 20
169.085325
 30
0.0
 10
258.665811
 20
169.081487
 30
0.0
 10
263.899791
 20
169.078044
 30
0.0
  0
SPLINE
  5
1fe
100
AcDbEntity
  8
decoupe
 62
7
100
AcDbSpline
 70
8
 71
3
 72
8
 73
4
 74
0
 40
0
 40
0
 40
0
 40
0
 40
1
 40
1
 40
1
 40
1
 10
263.899791
 20
169.078044
 30
0.0
 10
263.899791
 20
171.011339
 30
0.0
 10
263.899791
 20
172.944635
 30
0.0
 10
263.899791
 20
174.877931
 30
0.0
  0
SPLINE
  5
1ff
100
AcDbEntity
  8
decoupe
 62
7
100
AcDbSpline
 70
8
 71
3
 72
8
 73
4
 74
0
 40
0
 40
0
 40
0
 40
0
 40
1
 40
1
 40
1
 40
1
 10
263.899791
 20
174.877931
 30
0.0
 10
258.668131
 20
174.956134
 30
0.0
 10
253.436030
 20
174.965863
 30
0.0
 10
248.203934
 20
174.985418
 30
0.0
  0
LWPOLYLINE
  5
200
100
AcDbEntity
  8
decoupe
 62
7
100
AcDbPolyline
 90
2
 70
1
 10
248.243070
 20
160.977933
 30
0.0
 10
248.197872
 20
169.070875
 30
0.0
  0
SPLINE
  5
201
100
AcDbEntity
  8
decoupe
 62
7
100
AcDbSpline
 70
8
 71
3
 72
8
 73
4
 74
0
 40
0
 40
0
 40
0
 40
0
 40
1
 40
1
 40
1
 40
1
 10
248.208337
 20
181.417550
 30
0.0
 10
253.821497
 20
181.401209
 30
0.0
 10
259.434082
 20
181.452986
 30
0.0
 10
265.046861
 20
181.506298
 30
0.0
  0
SPLINE
  5
202
100
AcDbEntity
  8
decoupe
 62
7
100
AcDbSpline
 70
8
 71
3
 72
8
 73
4
 74
0
 40
0
 40
0
 40
0
 40
0
 40
1
 40
1
 40
1
 40
1
 10
265.046861
 20
181.506298
 30
0.0
 10
265.046861
 20
183.452087
 30
0.0
 10
265.046861
 20
185.397880
 30
0.0
 10
265.046861
 20
187.343669
 30
0.0
  0
SPLINE
  5
203
100
AcDbEntity
  8
decoupe
 62
7
100
AcDbSpline
 70
8
 71
3
 72
8
 73
4
 74
0
 40
0
 40
0
 40
0
 40
0
 40
1
 40
1
 40
1
 40
1
 10
265.046861
 20
187.343669
 30
0.0
 10
256.921220
 20
187.319680
 30
0.0
 10
248.795594
 20
187.306179
 30
0.0
 10
240.669925
 20
187.306179
 30
0.0
  0
LWPOLYLINE
  5
204
100
AcDbEntity
  8
decoupe
 62
7
100
AcDbPolyline
 90
2
 70
1
 10
248.203934
 20
174.985418
 30
0.0
 10
248.208337
 20
181.417550
 30
0.0
  0
LWPOLYLINE
  5
205
100
AcDbEntity
  8
decoupe
 62
7
100
AcDbPolyline
 90
2
 70
1
 10
240.669925
 20
187.306179
 30
0.0
 10
240.669925
 20
187.306179
 30
0.0
  0
SPLINE
  5
206
100
AcDbEntity
  8
decoupe
 62
7
100
AcDbSpline
 70
8
 71
3
 72
8
 73
4
 74
0
 40
0
 40
0
 40
0
 40
0
 40
1
 40
1
 40
1
 40
1
 10
136.433763
 20
81.345687
 30
0.0
 10
136.373249
 20
79.340518
 30
0.0
 10
136.450471
 20
78.546503
 30
0.0
 10
136.720947
 20
78.381251
 30
0.0
  0
SPLINE
  5
207
100
AcDbEntity
  8
decoupe
 62
7
100
AcDbSpline
 70
8
 71
3
 72
8
 73
4
 74
0
 40
0
 40
0
 40
0
 40
0
 40
1
 40
1
 40
1
 40
1
 10
136.720947
 20
78.381251
 30
0.0
 10
136.883428
 20
78.281973
 30
0.0
 10
140.507314
 20
78.198520
 30
0.0
 10
145.290139
 20
78.166829
 30
0.0
  0
LWPOLYLINE
  5
208
100
AcDbEntity
  8
decoupe
 62
7
100
AcDbPolyline
 90
6
 70
1
 10
161.493979
 20
78.261309
 30
0.0
 10
161.549887
 20
81.502233
 30
0.0
 10
161.466654
 20
84.084677
 30
0.0
 10
148.991551
 20
84.084677
 30
0.0
 10
136.516446
 20
84.084677
 30
0.0
 10
136.433763
 20
81.345687
 30
0.0
  0
SPLINE
  5
209
100
AcDbEntity
  8
decoupe
 62
7
100
AcDbSpline
 70
8
 71
3
 72
8
 73
4
 74
0
 40
0
 40
0
 40
0
 40
0
 40
1
 40
1
 40
1
 40
1
 10
145.332032
 20
64.751904
 30
0.0
 10
145.352747
 20
58.068213
 30
0.0
 10
145.320659
 20
52.440922
 30
0.0
 10
145.398177
 20
52.246482
 30
0.0
  0
SPLINE
  5
20a
100
AcDbEntity
  8
decoupe
 62
7
100
AcDbSpline
 70
8
 71
3
 72
8
 73
4
 74
0
 40
0
 40
0
 40
0
 40
0
 40
1
 40
1
 40
1
 40
1
 10
145.398177
 20
52.246482
 30
0.0
 10
145.504687
 20
51.979029
 30
0.0
 10
146.430385
 20
51.911812
 30
0.0
 10
149.201011
 20
51.970322
 30
0.0
  0
LWPOLYLINE
  5
20b
100
AcDbEntity
  8
decoupe
 62
7
100
AcDbPolyline
 90
2
 70
1
 10
145.290139
 20
78.166829
 30
0.0
 10
145.332032
 20
64.751904
 30
0.0
  0
SPLINE
  5
20c
100
AcDbEntity
  8
decoupe
 62
7
100
AcDbSpline
 70
8
 71
3
 72
8
 73
4
 74
0
 40
0
 40
0
 40
0
 40
0
 40
1
 40
1
 40
1
 40
1
 10
165.292052
 20
84.364297
 30
0.0
 10
165.185338
 20
73.554796
 30
0.0
 10
165.240575
 20
62.745564
 30
0.0
 10
165.283783
 20
51.935984
 30
0.0
  0
LWPOLYLINE
  5
20d
100
AcDbEntity
  8
decoupe
 62
7
100
AcDbPolyline
 90
5
 70
1
 10
149.201011
 20
51.970322
 30
0.0
 10
152.863288
 20
52.047493
 30
0.0
 10
152.863288
 20
64.475744
 30
0.0
 10
152.824702
 20
78.147537
 30
0.0
 10
161.493979
 20
78.261309
 30
0.0
  0
SPLINE
  5
20e
100
AcDbEntity
  8
decoupe
 62
7
100
AcDbSpline
 70
8
 71
3
 72
8
 73
4
 74
0
 40
0
 40
0
 40
0
 40
0
 40
1
 40
1
 40
1
 40
1
 10
189.668997
 20
52.050956
 30
0.0
 10
189.668997
 20
53.984251
 30
0.0
 10
189.668997
 20
55.917547
 30
0.0
 10
189.668997
 20
57.850843
 30
0.0
  0
SPLINE
  5
20f
100
AcDbEntity
  8
decoupe
 62
7
100
AcDbSpline
 70
8
 71
3
 72
8
 73
4
 74
0
 40
0
 40
0
 40
0
 40
0
 40
1
 40
1
 40
1
 40
1
 10
189.668997
 20
57.850843
 30
0.0
 10
184.067597
 20
57.900421
 30
0.0
 10
178.466414
 20
57.969582
 30
0.0
 10
172.865198
 20
58.036051
 30
0.0
  0
LWPOLYLINE
  5
210
100
AcDbEntity
  8
decoupe
 62
7
100
AcDbPolyline
 90
2
 70
1
 10
165.283783
 20
51.935984
 30
0.0
 10
189.668997
 20
52.050956
 30
0.0
  0
SPLINE
  5
211
100
AcDbEntity
  8
decoupe
 62
7
100
AcDbSpline
 70
8
 71
3
 72
8
 73
4
 74
0
 40
0
 40
0
 40
0
 40
0
 40
1
 40
1
 40
1
 40
1
 10
172.820000
 20
66.128993
 30
0.0
 10
178.053972
 20
66.143443
 30
0.0
 10
183.287938
 20
66.139605
 30
0.0
 10
188.521919
 20
66.136162
 30
0.0
  0
SPLINE
  5
212
100
AcDbEntity
  8
decoupe
 62
7
100
AcDbSpline
 70
8
 71
3
 72
8
 73
4
 74
0
 40
0
 40
0
 40
0
 40
0
 40
1
 40
1
 40
1
 40
1
 10
188.521919
 20
66.136162
 30
0.0
 10
188.521919
 20
68.069457
 30
0.0
 10
188.521919
 20
70.002753
 30
0.0
 10
188.521919
 20
71.936049
 30
0.0
  0
SPLINE
  5
213
100
AcDbEntity
  8
decoupe
 62
7
100
AcDbSpline
 70
8
 71
3
 72
8
 73
4
 74
0
 40
0
 40
0
 40
0
 40
0
 40
1
 40
1
 40
1
 40
1
 10
188.521919
 20
71.936049
 30
0.0
 10
183.290258
 20
72.014252
 30
0.0
 10
178.058157
 20
72.023981
 30
0.0
 10
172.826062
 20
72.043536
 30
0.0
  0
LWPOLYLINE
  5
214
100
AcDbEntity
  8
decoupe
 62
7
100
AcDbPolyline
 90
2
 70
1
 10
172.865198
 20
58.036051
 30
0.0
 10
172.820000
 20
66.128993
 30
0.0
  0
SPLINE
  5
215
100
AcDbEntity
  8
decoupe
 62
7
100
AcDbSpline
 70
8
 71
3
 72
8
 73
4
 74
0
 40
0
 40
0
 40
0
 40
0
 40
1
 40
1
 40
1
 40
1
 10
172.830465
 20
78.475668
 30
0.0
 10
178.443625
 20
78.459327
 30
0.0
 10
184.056209
 20
78.511104
 30
0.0
 10
189.668988
 20
78.564416
 30
0.0
  0
SPLINE
  5
216
100
AcDbEntity
  8
decoupe
 62
7
100
AcDbSpline
 70
8
 71
3
 72
8
 73
4
 74
0
 40
0
 40
0
 40
0
 40
0
 40
1
 40
1
 40
1
 40
1
 10
189.668988
 20
78.564416
 30
0.0
 10
189.668988
 20
80.510205
 30
0.0
 10
189.668988
 20
82.455998
 30
0.0
 10
189.668988
 20
84.401787
 30
0.0
  0
SPLINE
  5
217
100
AcDbEntity
  8
decoupe
 62
7
100
AcDbSpline
 70
8
 71
3
 72
8
 73
4
 74
0
 40
0
 40
0
 40
0
 40
0
 40
1
 40
1
 40
1
 40
1
 10
189.668988
 20
84.401787
 30
0.0
 10
181.543348
 20
84.377798
 30
0.0
 10
173.417721
 20
84.364297
 30
0.0
 10
165.292052
 20
84.364297
 30
0.0
  0
LWPOLYLINE
  5
218
100
AcDbEntity
  8
decoupe
 62
7
100
AcDbPolyline
 90
2
 70
1
 10
172.826062
 20
72.043536
 30
0.0
 10
172.830465
 20
78.475668
 30
0.0
  0
SPLINE
  5
219
100
AcDbEntity
  8
decoupe
 62
7
100
AcDbSpline
 70
8
 71
3
 72
8
 73
4
 74
0
 40
0
 40
0
 40
0
 40
0
 40
1
 40
1
 40
1
 40
1
 10
196.350501
 20
135.774501
 30
0.0
 10
196.243787
 20
124.965000
 30
0.0
 10
196.299023
 20
114.155768
 30
0.0
 10
196.342231
 20
103.346188
 30
0.0
  0
LWPOLYLINE
  5
21a
100
AcDbEntity
  8
decoupe
 62
7
100
AcDbPolyline
 90
2
 70
1
 10
165.292052
 20
84.364297
 30
0.0
 10
165.292052
 20
84.364297
 30
0.0
  0
SPLINE
  5
21b
100
AcDbEntity
  8
decoupe
 62
7
100
AcDbSpline
 70
8
 71
3
 72
8
 73
4
 74
0
 40
0
 40
0
 40
0
 40
0
 40
1
 40
1
 40
1
 40
1
 10
220.727445
 20
103.461160
 30
0.0
 10
220.727445
 20
105.394455
 30
0.0
 10
220.727445
 20
107.327751
 30
0.0
 10
220.727445
 20
109.261047
 30
0.0
  0
SPLINE
  5
21c
100
AcDbEntity
  8
decoupe
 62
7
100
AcDbSpline
 70
8
 71
3
 72
8
 73
4
 74
0
 40
0
 40
0
 40
0
 40
0
 40
1
 40
1
 40
1
 40
1
 10
220.727445
 20
109.261047
 30
0.0
 10
215.126045
 20
109.310625
 30
0.0
 10
209.524862
 20
109.379786
 30
0.0
 10
203.923646
 20
109.446255
 30
0.0
  0
LWPOLYLINE
  5
21d
100
AcDbEntity
  8
decoupe
 62
7
100
AcDbPolyline
 90
2
 70
1
 10
196.342231
 20
103.346188
 30
0.0
 10
220.727445
 20
103.461160
 30
0.0
  0
SPLINE
  5
21e
100
AcDbEntity
  8
decoupe
 62
7
100
AcDbSpline
 70
8
 71
3
 72
8
 73
4
 74
0
 40
0
 40
0
 40
0
 40
0
 40
1
 40
1
 40
1
 40
1
 10
203.878448
 20
117.539197
 30
0.0
 10
209.112420
 20
117.553647
 30
0.0
 10
214.346386
 20
117.549809
 30
0.0
 10
219.580367
 20
117.546366
 30
0.0
  0
SPLINE
  5
21f
100
AcDbEntity
  8
decoupe
 62
7
100
AcDbSpline
 70
8
 71
3
 72
8
 73
4
 74
0
 40
0
 40
0
 40
0
 40
0
 40
1
 40
1
 40
1
 40
1
 10
219.580367
 20
117.546366
 30
0.0
 10
219.580367
 20
119.479661
 30
0.0
 10
219.580367
 20
121.412957
 30
0.0
 10
219.580367
 20
123.346253
 30
0.0
  0
SPLINE
  5
220
100
AcDbEntity
  8
decoupe
 62
7
100
AcDbSpline
 70
8
 71
3
 72
8
 73
4
 74
0
 40
0
 40
0
 40
0
 40
0
 40
1
 40
1
 40
1
 40
1
 10
219.580367
 20
123.346253
 30
0.0
 10
214.348706
 20
123.424456
 30
0.0
 10
209.116605
 20
123.434185
 30
0.0
 10
203.884510
 20
123.453740
 30
0.0
  0
LWPOLYLINE
  5
221
100
AcDbEntity
  8
decoupe
 62
7
100
AcDbPolyline
 90
2
 70
1
 10
203.923646
 20
109.446255
 30
0.0
 10
203.878448
 20
117.539197
 30
0.0
  0
SPLINE
  5
222
100
AcDbEntity
  8
decoupe
 62
7
100
AcDbSpline
 70
8
 71
3
 72
8
 73
4
 74
0
 40
0
 40
0
 40
0
 40
0
 40
1
 40
1
 40
1
 40
1
 10
203.888913
 20
129.885872
 30
0.0
 10
209.502073
 20
129.869531
 30
0.0
 10
215.114657
 20
129.921308
 30
0.0
 10
220.727437
 20
129.974620
 30
0.0
  0
SPLINE
  5
223
100
AcDbEntity
  8
decoupe
 62
7
100
AcDbSpline
 70
8
 71
3
 72
8
 73
4
 74
0
 40
0
 40
0
 40
0
 40
0
 40
1
 40
1
 40
1
 40
1
 10
220.727437
 20
129.974620
 30
0.0
 10
220.727437
 20
131.920409
 30
0.0
 10
220.727437
 20
133.866202
 30
0.0
 10
220.727437
 20
135.811991
 30
0.0
  0
SPLINE
  5
224
100
AcDbEntity
  8
decoupe
 62
7
100
AcDbSpline
 70
8
 71
3
 72
8
 73
4
 74
0
 40
0
 40
0
 40
0
 40
0
 40
1
 40
1
 40
1
 40
1
 10
220.727437
 20
135.811991
 30
0.0
 10
212.601796
 20
135.788002
 30
0.0
 10
204.476169
 20
135.774501
 30
0.0
 10
196.350501
 20
135.774501
 30
0.0
  0
LWPOLYLINE
  5
225
100
AcDbEntity
  8
decoupe
 62
7
100
AcDbPolyline
 90
2
 70
1
 10
203.884510
 20
123.453740
 30
0.0
 10
203.888913
 20
129.885872
 30
0.0
  0
SPLINE
  5
226
100
AcDbEntity
  8
decoupe
 62
7
100
AcDbSpline
 70
8
 71
3
 72
8
 73
4
 74
0
 40
0
 40
0
 40
0
 40
0
 40
1
 40
1
 40
1
 40
1
 10
168.020721
 20
135.774501
 30
0.0
 10
167.914007
 20
124.965000
 30
0.0
 10
167.969243
 20
114.155768
 30
0.0
 10
168.012451
 20
103.346188
 30
0.0
  0
LWPOLYLINE
  5
227
100
AcDbEntity
  8
decoupe
 62
7
100
AcDbPolyline
 90
2
 70
1
 10
196.350501
 20
135.774501
 30
0.0
 10
196.350501
 20
135.774501
 30
0.0
  0
SPLINE
  5
228
100
AcDbEntity
  8
decoupe
 62
7
100
AcDbSpline
 70
8
 71
3
 72
8
 73
4
 74
0
 40
0
 40
0
 40
0
 40
0
 40
1
 40
1
 40
1
 40
1
 10
192.397665
 20
103.461160
 30
0.0
 10
192.397665
 20
105.394455
 30
0.0
 10
192.397665
 20
107.327751
 30
0.0
 10
192.397665
 20
109.261047
 30
0.0
  0
SPLINE
  5
229
100
AcDbEntity
  8
decoupe
 62
7
100
AcDbSpline
 70
8
 71
3
 72
8
 73
4
 74
0
 40
0
 40
0
 40
0
 40
0
 40
1
 40
1
 40
1
 40
1
 10
192.397665
 20
109.261047
 30
0.0
 10
186.796265
 20
109.310625
 30
0.0
 10
181.195083
 20
109.379786
 30
0.0
 10
175.593866
 20
109.446255
 30
0.0
  0
LWPOLYLINE
  5
22a
100
AcDbEntity
  8
decoupe
 62
7
100
AcDbPolyline
 90
2
 70
1
 10
168.012451
 20
103.346188
 30
0.0
 10
192.397665
 20
103.461160
 30
0.0
  0
SPLINE
  5
22b
100
AcDbEntity
  8
decoupe
 62
7
100
AcDbSpline
 70
8
 71
3
 72
8
 73
4
 74
0
 40
0
 40
0
 40
0
 40
0
 40
1
 40
1
 40
1
 40
1
 10
175.548668
 20
117.539197
 30
0.0
 10
180.782640
 20
117.553647
 30
0.0
 10
186.016606
 20
117.549809
 30
0.0
 10
191.250587
 20
117.546366
 30
0.0
  0
SPLINE
  5
22c
100
AcDbEntity
  8
decoupe
 62
7
100
AcDbSpline
 70
8
 71
3
 72
8
 73
4
 74
0
 40
0
 40
0
 40
0
 40
0
 40
1
 40
1
 40
1
 40
1
 10
191.250587
 20
117.546366
 30
0.0
 10
191.250587
 20
119.479661
 30
0.0
 10
191.250587
 20
121.412957
 30
0.0
 10
191.250587
 20
123.346253
 30
0.0
  0
SPLINE
  5
22d
100
AcDbEntity
  8
decoupe
 62
7
100
AcDbSpline
 70
8
 71
3
 72
8
 73
4
 74
0
 40
0
 40
0
 40
0
 40
0
 40
1
 40
1
 40
1
 40
1
 10
191.250587
 20
123.346253
 30
0.0
 10
186.018926
 20
123.424456
 30
0.0
 10
180.786826
 20
123.434185
 30
0.0
 10
175.554730
 20
123.453740
 30
0.0
  0
LWPOLYLINE
  5
22e
100
AcDbEntity
  8
decoupe
 62
7
100
AcDbPolyline
 90
2
 70
1
 10
175.593866
 20
109.446255
 30
0.0
 10
175.548668
 20
117.539197
 30
0.0
  0
SPLINE
  5
22f
100
AcDbEntity
  8
decoupe
 62
7
100
AcDbSpline
 70
8
 71
3
 72
8
 73
4
 74
0
 40
0
 40
0
 40
0
 40
0
 40
1
 40
1
 40
1
 40
1
 10
175.559133
 20
129.885872
 30
0.0
 10
181.172293
 20
129.869531
 30
0.0
 10
186.784877
 20
129.921308
 30
0.0
 10
192.397657
 20
129.974620
 30
0.0
  0
SPLINE
  5
230
100
AcDbEntity
  8
decoupe
 62
7
100
AcDbSpline
 70
8
 71
3
 72
8
 73
4
 74
0
 40
0
 40
0
 40
0
 40
0
 40
1
 40
1
 40
1
 40
1
 10
192.397657
 20
129.974620
 30
0.0
 10
192.397657
 20
131.920409
 30
0.0
 10
192.397657
 20
133.866202
 30
0.0
 10
192.397657
 20
135.811991
 30
0.0
  0
SPLINE
  5
231
100
AcDbEntity
  8
decoupe
 62
7
100
AcDbSpline
 70
8
 71
3
 72
8
 73
4
 74
0
 40
0
 40
0
 40
0
 40
0
 40
1
 40
1
 40
1
 40
1
 10
192.397657
 20
135.811991
 30
0.0
 10
184.272016
 20
135.788002
 30
0.0
 10
176.146389
 20
135.774501
 30
0.0
 10
168.020721
 20
135.774501
 30
0.0
  0
LWPOLYLINE
  5
232
100
AcDbEntity
  8
decoupe
 62
7
100
AcDbPolyline
 90
2
 70
1
 10
175.554730
 20
123.453740
 30
0.0
 10
175.559133
 20
129.885872
 30
0.0
  0
SPLINE
  5
233
100
AcDbEntity
  8
decoupe
 62
7
100
AcDbSpline
 70
8
 71
3
 72
8
 73
4
 74
0
 40
0
 40
0
 40
0
 40
0
 40
1
 40
1
 40
1
 40
1
 10
130.783578
 20
135.758634
 30
0.0
 10
128.298109
 20
135.758634
 30
0.0
 10
125.812643
 20
135.758634
 30
0.0
 10
123.327174
 20
135.758634
 30
0.0
  0
LWPOLYLINE
  5
234
100
AcDbEntity
  8
decoupe
 62
7
100
AcDbPolyline
 90
2
 70
1
 10
168.020721
 20
135.774501
 30
0.0
 10
168.020721
 20
135.774501
 30
0.0
  0
SPLINE
  5
235
100
AcDbEntity
  8
decoupe
 62
7
100
AcDbSpline
 70
8
 71
3
 72
8
 73
4
 74
0
 40
0
 40
0
 40
0
 40
0
 40
1
 40
1
 40
1
 40
1
 10
123.397129
 20
103.448220
 30
0.0
 10
125.847009
 20
103.373863
 30
0.0
 10
128.373449
 20
103.393652
 30
0.0
 10
130.822779
 20
103.445369
 30
0.0
  0
SPLINE
  5
236
100
AcDbEntity
  8
decoupe
 62
7
100
AcDbSpline
 70
8
 71
3
 72
8
 73
4
 74
0
 40
0
 40
0
 40
0
 40
0
 40
1
 40
1
 40
1
 40
1
 10
130.822779
 20
103.445369
 30
0.0
 10
130.822779
 20
114.216457
 30
0.0
 10
130.783578
 20
124.987541
 30
0.0
 10
130.783578
 20
135.758629
 30
0.0
  0
LWPOLYLINE
  5
237
100
AcDbEntity
  8
decoupe
 62
7
100
AcDbPolyline
 90
2
 70
1
 10
123.327174
 20
135.758634
 30
0.0
 10
123.397129
 20
103.448220
 30
0.0
  0
LWPOLYLINE
  5
238
100
AcDbEntity
  8
decoupe
 62
7
100
AcDbPolyline
 90
2
 70
1
 10
130.783578
 20
135.758629
 30
0.0
 10
130.783578
 20
135.758634
 30
0.0
  0
ENDSEC
  0
SECTION
  2
OBJECTS
  0
DICTIONARY
  5
C
330
0
100
AcDbDictionary
  3
ACAD_GROUP
350
D
  3
ACAD_MLINESTYLE
350
17
  0
DICTIONARY
  5
D
330
C
100
AcDbDictionary
  0
DICTIONARY
  5
1A
330
C
100
AcDbDictionary
  0
DICTIONARY
  5
17
330
C
100
AcDbDictionary
  3
STANDARD
350
18
  0
DICTIONARY
  5
19
330
C
100
AcDbDictionary
  0
ENDSEC
  0
EOF
